>
 >
Return Of The Warlord

Return Of The Warlord Bass Tabs

Manowar - Return Of The Warlord chords, tabs, tablatures, lyrics

Guitar lessons | Add/correct | Request | Top 50 tabs Artists:  A B C D E F G H I J K L M N O P Q R S T U V W X Y Z 0-9

Return Of The Warlord Bass Tabs – Manowar

CD, Sheet music, Poster

Do you like Return Of The Warlord? Share with your friends now
Bass TabsTabs
Return Of The Warlord                               


                                                                       Manowar
Bass



     S S S S S S S S S S S S S S S S    S S S S S S S S S S S S S S S S  
G||----------------------------------|----------------------------------|
D||----------------------------------|----------------------------------|
A||----------------------------------|----------------------------------|
E||--0-0-0-0-0-0-0-0-0-0-0-0-0-0-0-0-|--0-0-0-0-0-0-0-0-0-0-0-0-0-0-0-0-|


  S S S S S S S S S S S S S S S S    S S S S S S S S S S S S T T T T T T T T  
----------------------------------|------------------------------------------|
----------------------------------|------------------------------------------|
----------------------------------|------------------------------------------|
--0-0-0-0-0-0-0-0-0-0-0-0-0-0-0-0-|--0-0-0-0-0-0-0-0-0-0-0-0-8-8-7-7-6-6-5-5-|


  S S S S S S S S S S S S S S S S    S S S S S S S S S S S S S S S S  
----------------------------------|----------------------------------|
----------------------------------|----------------------------------|
----------------------------------|----------------------------------|
--0-0-0-0-0-0-0-0-0-0-0-0-0-0-0-0-|--0-0-0-0-0-0-0-0-0-0-0-0-0-0-0-0-|


  S S S S S S S S S S S S S S S S    S E.  H.            
----------------------------------|---------------------|
----------------------------------|---------------------|
----------------------------------|---------------------|
--0-0-0-0-0-0-0-0-0-0-0-0-0-0-0-0-|--L-x----------------|


  S S S S S S S S S S S S S S S S    S S S S S S S S S S S S S S S S  
----------------------------------|----------------------------------|
----------------------------------|----------------------------------|
----------------------------------|----------------------------------|
--0-0-0-0-0-0-0-0-0-0-0-0-0-0-0-0-|--0-0-0-0-0-0-0-0-0-0-0-0-0-0-0-0-|


  S S S S S S S S S S S S S S S S    S S S S S S S S S S S S S S S S  
----------------------------------|----------------------------------|
----------------------------------|----------------------------------|
----------------------------------|----------------------------------|
--0-0-0-0-0-0-0-0-0-0-0-0-0-0-0-0-|--0-0-0-0-0-0-0-0-0-0-0-0-0-0-0-0-|


  S S S S S S S S S S S S S S S S    S S S S S S S S S S S S S S S S  
----------------------------------|----------------------------------|
----------------------------------|----------------------------------|
----------------------------------|----------------------------------|
--0-0-0-0-0-0-0-0-0-0-0-0-0-0-0-0-|--0-0-0-0-0-0-0-0-0-0-0-0-0-0-0-0-|


  S S S S S S S S S S S S S S S S    S S S S S S S S S S S S S S S S  
----------------------------------|----------------------------------|
----------------------------------|----------------------------------|
----------------------------------|----------------------------------|
--0-0-0-0-0-0-0-0-0-0-0-0-0-0-0-0-|--0-0-0-0-0-0-0-0-0-0-0-0-0-0-0-0-|


  S S S S S S S S S S S S S S S S    S S S S S S S S S S S S S S S S  
----------------------------------|----------------------------------|
----------------------------------|----------------------------------|
----------------------------------|----------------------------------|
--0-0-0-0-0-0-0-0-0-0-0-0-0-0-0-0-|--0-0-0-0-0-0-0-0-0-0-0-0-0-0-0-0-|


  S S S S S S S S S S S S S S S S    S S S S S S S S S S S S S S S S  
----------------------------------|----------------------------------|
----------------------------------|----------------------------------|
----------------------------------|----------------------------------|
--0-0-0-0-0-0-0-0-0-0-0-0-0-0-0-0-|--0-0-0-0-0-0-0-0-0-0-0-0-0-0-0-0-|


  S S S S S S S S S S S S S S S S    S S S S S S S S S S S S S S S S  
----------------------------------|----------------------------------|
----------------------------------|----------------------------------|
----------------------------------|----------------------------------|
--0-0-0-0-0-0-0-0-0-0-0-0-0-0-0-0-|--0-0-0-0-0-0-0-0-0-0-0-0-0-0-0-0-|


  S S S S S S S S S S S S S S S S    S S S S S S S S S S S S S S S S  
----------------------------------|----------------------------------|
----------------------------------|----------------------------------|
----------------------------------|----------------------------------|
--0-0-0-0-0-0-0-0-0-0-0-0-0-0-0-0-|--0-0-0-0-0-0-0-0-0-0-0-0-0-0-0-0-|


  Q    E.  S S S S S S S S S    Q    E.  S S S S S S S S S  
-----------------------------|--7----L---------------------|
--5----L---------------------|--7----L---------------------|
--5----L---------------------|--5----L---5-5-5-5-5-5-5-5-5-|
--3----L---3-3-3-3-3-3-3-3-3-|-----------------------------|


  Q    E.  S S S S S S S S S    S S S S S S S S S S S S S S E   
--9----L---------------------|---------------------------------|
--9----L---------------------|--5-----5-----5-----5-----5-5-4--|
--7----L---7-7-7-7-7-7-7-7-7-|--3-3-3-3-3-3-3-3-3-3-3-3-3-3-2--|
-----------------------------|---------------------------------|


  Q    E.  S S S S S S S S S    H        S S S S S S S S  
-----------------------------|--4------------------------|
--5----L---------------------|--4------------------------|
--5----L---------------------|--2------------------------|
--3----L---3-3-3-3-3-3-3-3-3-|-----------0-0-0-0-0-0-0-0-|


  S S S S S S S S S S S S Q       E  S S S S E  Q    E  E    
-------------------------------|----------------------------|
--5----------------------------|--9----7-L---9--L----L--9\--|
--3-3-3-3-3-3-3-3-5-5-5-5-5----|--7----5-L---7--L----L--7\--|
-------------------------------|-----0-----0----------------|


  E  S  S S S E  E.  S S S E      E  S S S S E  E  E  Q     
-------------------------------|---------------------------|
--9----12-L---9--L---9-9-9-9\--|--9----7-L---9--L--9--L----|
--7----10-L---7--L---7-7-7-7\--|--7----5-L---7--L--7--L----|
-----0------0------------------|-----0-----0---------------|


  E  S  S S S E  S S S S S S S  S    S S S S S S S S S S S S S S S S  
----------------------------------|----------------------------------|
--9----12-L---9--L-9-9-9-9-9-9\---|----------------------------------|
--7----10-L---7--L-7-7-7-7-7-7\---|----------------------------------|
-----0------0-------------------0-|--L-0-0-0-0-0-0-0-0-0-0-0-0-0-0-0-|


  S S S S S S S S S S S S S S S S    S S S S S S S S S S S S S S S S  
----------------------------------|----------------------------------|
----------------------------------|----------------------------------|
----------------------------------|----------------------------------|
--0-0-0-0-0-0-0-0-0-0-0-0-0-0-0-0-|--0-0-0-0-0-0-0-0-0-0-0-0-0-0-0-0-|


  S S S S S S S S S S S S S S S S    S S S S S S S S S S S S S S S S  
----------------------------------|----------------------------------|
----------------------------------|----------------------------------|
----------------------------------|----------------------------------|
--0-0-0-0-0-0-0-0-0-0-0-0-0-0-0-0-|--0-0-0-0-0-0-0-0-0-0-0-0-0-0-0-0-|


  S S S S S S S S S S S S S S S S    S S S S S S S S S S S S S S S S  
----------------------------------|----------------------------------|
----------------------------------|----------------------------------|
----------------------------------|----------------------------------|
--0-0-0-0-0-0-0-0-0-0-0-0-0-0-0-0-|--0-0-0-0-0-0-0-0-0-0-0-0-0-0-0-0-|


  S S S S S S S S S S S S S S S  S    S S S S S S S S S S S S S S S S  
-----------------------------------|----------------------------------|
--------------------------5---5p-2-|--L-------------------------------|
--------------------------5---5p-2-|--L-------------------------------|
--0-0-0-0-0-0-0-0-0-0-0-0----------|----0-0-0-0-0-0-0-0-0-0-0-0-0-0-0-|


  S S S S S S S S S S S S S S S S    S S S S S S S S S S S S S S S S  
----------------------------------|----------------------------------|
----------------------------------|----------------------------------|
----------------------------------|----------------------------------|
--0-0-0-0-0-0-0-0-0-0-0-0-0-0-0-0-|--0-0-0-0-0-0-0-0-0-0-0-0-0-0-0-0-|


  S S S S S S S S S S S S S S S S    S S S S S S S S S S S S S S S S  
----------------------------------|----------------------------------|
----------------------------------|----------------------------------|
----------------------------------|----------------------------------|
--0-0-0-0-0-0-0-0-0-0-0-0-0-0-0-0-|--0-0-0-0-0-0-0-0-0-0-0-0-0-0-0-0-|


  S S S S S S S S S S S S S S S S    S S S S S S S S S S S S S S S S  
----------------------------------|----------------------------------|
----------------------------------|----------------------------------|
----------------------------------|----------------------------------|
--0-0-0-0-0-0-0-0-0-0-0-0-0-0-0-0-|--0-0-0-0-0-0-0-0-0-0-0-0-0-0-0-0-|


  S S S S S S S S S S S S S S S S    Q    E.  S S S S S S S S S  
----------------------------------|-----------------------------|
----------------------------------|--5----L---------------------|
----------------------------------|--5----L---------------------|
--0-0-0-0-0-0-0-0-0-0-0-0-0-0-0-0-|--3----L---3-3-3-3-3-3-3-3-3-|


  Q    E.  S S S S S S S S S    Q    E.  S S S S S S S S S  
--7----L---------------------|--9----L---------------------|
--7----L---------------------|--9----L---------------------|
--5----L---5-5-5-5-5-5-5-5-5-|--7----L---7-7-7-7-7-7-7-7-7-|
-----------------------------|-----------------------------|


  S S S S S S S S S S S S S S E     Q    E.  S S S S S S S S S  
---------------------------------|-----------------------------|
--5-----5-----5-----5-----5-5-4--|--5----L---------------------|
--3-3-3-3-3-3-3-3-3-3-3-3-3-3-2--|--5----L---------------------|
---------------------------------|--3----L---3-3-3-3-3-3-3-3-3-|


  H        S S S S S S S S    S S S S S S S S E.  S E  E     W                 
--4------------------------|------------------------------|-------------------|
--4------------------------|--5---------------------------|-------------------|
--2------------------------|--3-3-3-3-3-3-3-3-5---5-L--5--|-------------------|
-----------0-0-0-0-0-0-0-0-|------------------------------|-------------------|


  W                   W                   W                   W                 
-------------------|-------------------|-------------------|-------------------|
-------------------|-------------------|-------------------|-------------------|
-------------------|-------------------|-------------------|-------------------|
-------------------|-------------------|-------------------|-------------------|


  W                   W                   W                 
-------------------|-------------------|-------------------|
-------------------|-------------------|-------------------|
-------------------|-------------------|-------------------|
-------------------|-------------------|-------------------|


   E.   S E   E  S S S S S S S S    E.  S Q    E.  S E  E    
---------------------------------|--------------------------|
--11---11-L--11--L---------------|--7---7-L----9---9-L--9/--|
---9----9-L---9--L-9-9-9-9-9-9-9-|--5---5-L----7---7-L--7/--|
---------------------------------|--------------------------|


   E.   S E   E  S S S S S S S S    E.  S E  E   E.  S E  E    
---------------------------------|----------------------------|
--11---11-L--11--L---------------|--7---7-L--7/--9---9-L--9/--|
---9----9-L---9--L-9-9-9-9-9-9-9-|--5---5-L--5/--7---7-L--7/--|
---------------------------------|----------------------------|


   E.   S E   E  S S S S S S S S    E.  S E  E   E.  S E  E    
---------------------------------|----------------------------|
--11---11-L--11--L---------------|--7---7-L--7/--9---9-L--9/--|
---9----9-L---9--L-9-9-9-9-9-9-9-|--5---5-L--5/--7---7-L--7/--|
---------------------------------|----------------------------|


   E.   S E   E  S S S S S S S S    E.  S E  E   E.  S E  E    
---------------------------------|----------------------------|
--11---11-L--11--L---------------|--7---7-L--7/--9---9-L--9/--|
---9----9-L---9--L-9-9-9-9-9-9-9-|--5---5-L--5/--7---7-L------|
---------------------------------|----------------------------|


   S  S  S  S  S  S  E  S  S  S  S  S  S  S  S    E.  S E  E    E.   S E   E    
-----------------------------------------------|-------------------------------|
--13-------13-------13--L----------------------|--9---9-L--9/--11---11-L--11/--|
-----11-11----11-11-11--L-11-11-11-11-11-11-11-|--7---7-L--7/---9----9-L---9/--|
-----------------------------------------------|-------------------------------|


   S  S  S  S  S  S  E  S  S  S  S  S  S  S  S    E.  S E  E    E.   S E   E    
-----------------------------------------------|-------------------------------|
--13-------13-------13--L----------------------|--9---9-L--9/--11---11-L--11/--|
-----11-11----11-11-11--L-11-11-11-11-11-11-11-|--7---7-L--7/---9----9-L---9/--|
-----------------------------------------------|-------------------------------|


   S  S  S  S  S  S  E  S  S  S  S  S  S  S  S    E.  S E  E    E.   S E   E    
-----------------------------------------------|-------------------------------|
--13-------13-------13--L----------------------|--9---9-L--9/--11---11-L--11/--|
-----11-11----11-11-11--L-11-11-11-11-11-11-11-|--7---7-L--7/---9----9-L---9/--|
-----------------------------------------------|-------------------------------|


   S  S  S  S  S  S  E  Q    E   E      E.  S E  E   
-------------------------------------|--------------|
--13-------13-------13--L----L-------|--------------|
-----11-11----11-11-11--L----L--11\--|--2-----------|
-------------------------------------|------5-L--3--|


  S S S S S S S S S S S S S S S S    S S S S S S S S S S S S S S S S  
----------------------------------|----------------------------------|
----------------------------------|----------------------------------|
----------------------------------|----------------------------------|
--0-0-0-0-0-0-0-0-0-0-0-0-0-0-0-0-|--0-0-0-0-0-0-0-0-0-0-0-0-0-0-0-0-|


  S S S S S S S S S S S S S S S S    S S S S S S S S S S S S S S S S  
----------------------------------|----------------------------------|
----------------------------------|----------------------------------|
----------------------------------|----------------------------------|
--0-0-0-0-0-0-0-0-0-0-0-0-0-0-0-0-|--0-0-0-0-0-0-0-0-0-0-0-0-0-0-0-0-|


  S S S S S S S S S S S S S S S S    S S S S S S S S S S S S S S S S  
----------------------------------|----------------------------------|
----------------------------------|----------------------------------|
----------------------------------|----------------------------------|
--0-0-0-0-0-0-0-0-0-0-0-0-0-0-0-0-|--0-0-0-0-0-0-0-0-0-0-0-0-0-0-0-0-|


  S S S S S S S S S S S S S S S S    S S S S S S S S S S S S S S S S  
----------------------------------|----------------------------------|
----------------------------------|----------------------------------|
----------------------------------|----------------------------------|
--0-0-0-0-0-0-0-0-0-0-0-0-0-0-0-0-|--0-0-0-0-0-0-0-0-0-0-0-0-0-0-0-0-|


  S S S S S S S S S S S S S S S S    W                 
----------------------------------|-------------------|
----------------------------------|-------------------|
----------------------------------|-------------------|
--0-0-0-0-0-0-0-0-0-0-0-0-0-0-0-0-|-------------------|


  S S S S S S S S S S S S S S S S    S S S S S S S S S S S S S S S S  
----------------------------------|----------------------------------|
----------------------------------|--7-------------------------------|
--5-------------------------------|--5-5-5-5-5-5-5-5-5-5-5-5-5-5-5-5-|
--3-3-3-3-3-3-3-3-3-3-3-3-3-3-3-3-|----------------------------------|


  S S S S S S S S S S S S S S S S    S S S S S S S S S S S S S S E   
----------------------------------|---------------------------------|
--9-------------------------------|--5-----5-----5-----5-----5-5-4--|
--7-7-7-7-7-7-7-7-7-7-7-7-7-7-7-7-|--3-3-3-3-3-3-3-3-3-3-3-3-3-3-2--|
----------------------------------|---------------------------------|


  S S S S S S S S S S S S S S S S    H        S S S S S S S S  
----------------------------------|---------------------------|
----------------------------------|--4------------------------|
--5-------------------------------|--2------------------------|
--3-3-3-3-3-3-3-3-3-3-3-3-3-3-3-3-|-----------0-0-0-0-0-0-0-0-|


  S S S S S S S S S S S S S S S S    S S S S S S S S S S S S E  E   
----------------------------------|--------------------------------|
--5---------------7---------------|--9-----7-----9-----7-----9--7--|
--3-3-3-3-3-3-3-3-5-5-5-5-5-5-5-5-|--7-----5-----7-----5-----7--5--|
----------------------------------|----0-0---0-0---0-0---0-0-------|


  S S S S S S S S S S S S S S S S    S S S S S S S S S S S S S S S S  
----------------------------------|----------------------------------|
----------------------------------|--7-------------------------------|
--5-------------------------------|--5-5-5-5-5-5-5-5-5-5-5-5-5-5-5-5-|
--3-3-3-3-3-3-3-3-3-3-3-3-3-3-3-3-|----------------------------------|


  S S S S S S S S S S S S S S S S    S S S S S S S S S S S S S S E   
----------------------------------|---------------------------------|
--9-------------------------------|--5-----5-----5-----5-----5-5-4--|
--7-7-7-7-7-7-7-7-7-7-7-7-7-7-7-7-|--3-3-3-3-3-3-3-3-3-3-3-3-3-3-2--|
----------------------------------|---------------------------------|


  S S S S S S S S S S S S S S S S    H        S S S S S S S S  
----------------------------------|---------------------------|
----------------------------------|--4------------------------|
--5-------------------------------|--2------------------------|
--3-3-3-3-3-3-3-3-3-3-3-3-3-3-3-3-|-----------0-0-0-0-0-0-0-0-|


  S S S S S S S S S S S S S S S S    S S S S S S S S S S S S E  E   
----------------------------------|--------------------------------|
--5---------------7---------------|--9-----7-----9-----7-----9--7--|
--3-3-3-3-3-3-3-3-5-5-5-5-5-5-5-5-|--7-----5-----7-----5-----7--5--|
----------------------------------|----0-0---0-0---0-0---0-0-------|


  S S S S S S S S S S S S S S S S    S S S S S S S S S S S S S S S S  
----------------------------------|----------------------------------|
----------------------------------|--7-------------------------------|
--5-------------------------------|--5-5-5-5-5-5-5-5-5-5-5-5-5-5-5-5-|
--3-3-3-3-3-3-3-3-3-3-3-3-3-3-3-3-|----------------------------------|


  S S S S S S S S S S S S S S S S    S S S S S S S S S S S S S S E   
----------------------------------|---------------------------------|
--9-------------------------------|--5-----5-----5-----5-----5-5-4--|
--7-7-7-7-7-7-7-7-7-7-7-7-7-7-7-7-|--3-3-3-3-3-3-3-3-3-3-3-3-3-3-2--|
----------------------------------|---------------------------------|


  S S S S S S S S S S S S S S S S    H        S S S S S S S S  
----------------------------------|---------------------------|
----------------------------------|--4------------------------|
--5-------------------------------|--2------------------------|
--3-3-3-3-3-3-3-3-3-3-3-3-3-3-3-3-|-----------0-0-0-0-0-0-0-0-|


  S S S S S S S S S S S S S S S S    S S S S S S S S S S S S E  E   
----------------------------------|--------------------------------|
--5---------------7---------------|--9-----7-----9-----7-----9--7--|
--3-3-3-3-3-3-3-3-5-5-5-5-5-5-5-5-|--7-----5-----7-----5-----7--5--|
----------------------------------|----0-0---0-0---0-0---0-0-------|


  S S S S S S S S S S S S S S S S    S S S S S S S S S S S S S S S S  
----------------------------------|----------------------------------|
----------------------------------|--7-------------------------------|
--5-------------------------------|--5-5-5-5-5-5-5-5-5-5-5-5-5-5-5-5-|
--3-3-3-3-3-3-3-3-3-3-3-3-3-3-3-3-|----------------------------------|


  S S S S S S S S S S S S S S S S    S S S S S S S S S S S S S S E   
----------------------------------|---------------------------------|
--9-------------------------------|--5-----5-----5-----5-----5-5-4--|
--7-7-7-7-7-7-7-7-7-7-7-7-7-7-7-7-|--3-3-3-3-3-3-3-3-3-3-3-3-3-3-2--|
----------------------------------|---------------------------------|


  S S S S S S S S S S S S S S S S    H        S S S S S S S S  
----------------------------------|---------------------------|
----------------------------------|--4------------------------|
--5-------------------------------|--2------------------------|
--3-3-3-3-3-3-3-3-3-3-3-3-3-3-3-3-|-----------0-0-0-0-0-0-0-0-|


  S S S S S S S S S S S S S S S S    S S S S S S S S S S S S E  E    
----------------------------------|--------------------------------||
--5---------------7---------------|--9-----7-----9-----7-----9--7--||
--3-3-3-3-3-3-3-3-5-5-5-5-5-5-5-5-|--7-----5-----7-----5-----7--5--||
----------------------------------|----0-0---0-0---0-0---0-0-------||





Comments


Popular Manowar tabs & chords
Courage Bass Tabs
Hail To England 2 Bass Tabs
Blood Of The Kings Tabs
Carry On Tabs
Fast Taker Tabs
Hail And Kill 1 Tabs
House Of Death Intro Tabs
Kings Of Metal Tabs
Master Of The Wind Tabs
Warriors Of The World Tabs


Song lyrics



↑ Back to top | Tablatures and chords are parodies/interpretations of the original songs. You may use it for private study, scholarship, research or language learning purposes only
© 2014 AZChords.com Contact us | Privacy policy | DMCA | Add/correct tabs | Request tabs | Top 50 tabs