>
 >
Outlaw

Outlaw Guitar Tabs

Manowar - Outlaw chords, tabs, tablatures, lyrics

Guitar lessons | Add/correct | Request | Top 50 tabs Artists:  A B C D E F G H I J K L M N O P Q R S T U V W X Y Z 0-9

Outlaw Guitar Tabs – Manowar

CD, Sheet music, Poster

Do you like Outlaw? Share with your friends now
Tabs
Manowar: Outlaw(Louder than Hell)

Standard Tuning

INTRO
|----------------------------------------------------------------------------|
|-------------------------N.H------------------------------------------------|
|-9--11--12--11--7--9-----12/\/\/\/\-----------------------------------------|
|-9--11--12--11--7--9--------------------------------------------------------|
|-7--9---10--9---5--7--------------------------------------------------------|
|----------------------------------------------------------------------------|
                       T        T         T        T         T        T
|----------------------22p20p19-22p20p19--20p19p17-20p19p17--19p17p15-19p17p15
|----------------------------------------------------------------------------|
|-9--11--12--11--7--9--------------------------------------------------------|
|-9--11--12--11--7--9--------------------------------------------------------|
|-7--9---10--9---5--7--------------------------------------------------------|
|----------------------------------------------------------------------------|
  T        T
|-17p15p14-17p15p14----------------------------------------------------------|
|----------------------------------------------------------------------------|
|----------------------------------------------------------------------------|
|----------------------------------------------------------------------------|
|----------------------------------------------------------------------------|
|----------------------------------------------------------------------------|

|----------------------------------------------------------------------------|
|-------------------------N.H------------------------------------------------|
|-9--11--12--11--7--9-----12\/\/\\/------------------------------------------|
|-9--11--12--11--7--9--------------------------------------------------------|
|-7--9---10--9---5--7--------------------------------------------------------|
|----------------------------------------------------------------------------|

|----------------------------------------------------------------------------|
|----------------------------------------------------------------------------|
|-9--11--12--11--7--9--------------------------------------------------------|
|-9--11--12--11--7--9--------------------------------------------------------|
|-7--9---10--9---5--7--------------------------------------------------------|
|------------------------7-7-7-5-5-5-3-3-3-2-2-2-----------------------------|

Riff 1 (Listen the times from the record)
|----------------------------------------------------------------------------|
|----------------------------------------------------------------------------|
|----------------------------------------------------------------------------|
|----------------------------------------------------------------------------|
|----------------------------------------------------------------------------|
|-0-0-0-0-0-0-0-0-0-0-0-0-0-0-0-0-0-0-0-0-0-0-0-0-0-0-0-0-0-0-0-0-0-0-0-0-0-0|

Chorus
|g1---12----12---------------------------------------------------------------|
|-----15(17)15(17)-----------------------------------------------------------|
|g2---9-----9-----------------12--------7-----5--4---------------------------|
|-----9-----9-----------------12--------7-----5--4---------------------------|
|-----7-----7-----------------10--------5-----3--2---------------------------|
|-0-0---0-0---0-0-0-0-0-0-0-0---------0--------------------------------------|

Fill
|----------------------------------------------------------------------------|
|-------------------------7(8)br-7(9)----------------------------------------|
|-9--11--12--11--7--9-----7(8)br---------------------------------------------|
|-9--11--12--11--7--9--------------------------------------------------------|
|-7--9---10--9---5--7--------------------------------------------------------|
|----------------------------------------------------------------------------|

|----------------------------------------------------------------------------|
|----------------------------------------------------------------------------|
|-9--11--12--11--7--9--------------------------------------------------------|
|-9--11--12--11--7--9--------------------------------------------------------|
|-7--9---10--9---5--7--------------------------------------------------------|
|------------------------7-7-7-5-5-5-3-3-3-2-2-2-----------------------------|

Riff 2 4x
|----------------------------------------------------------------------------|
|----------------------------------------------------------------------------|
|----------------------------------------------------------------------------|
|----------------------------------------------------------------------------|
|----------------------------------------------------------------------------|
|-0-0-0-0-0-0-0-0-0-0-0-0-0-0-0-0-0-0-0-0-0-0-0-0-0-0-0-0-0-0-0-0-0-0-0-0-0-0|

|----------------------------------------------------------------------------|
|----------------------------------------------------------------------------|
|-9--11--12--11--7--9--------------------------------------------------------|
|-9--11--12--11--7--9--------------------------------------------------------|
|-7--9---10--9---5--7--------------------------------------------------------|
|---------------------0-0-0-0-0-0-0-0-0-0-0-0-0-0-0-0-0-0-0-0-0-0-0-0-0-0-0-0|

Chorus 

 4x          Solo (Sorry No Backround)
|-----------|-12h13p12h13p12--10h12p10h12p10--8h10p8h10p8h10-7h8p7h8p7-------|
|-----------|----------------------------------------------------------------|
|-5---------|----------------------------------------------------------------|
|-5-----2---|----------------------------------------------------------------|
|-3-----2---|----------------------------------------------------------------|
|-------0---|----------------------------------------------------------------|

|-10(11)br-----------------------------P.H-----------------------------------|
|-10(11)br--8h10-8\7-8-10(11)-8-7-7(8)-7-------------------------------------|
|-------------------------------------------7h9p7----------------------------|
|----------------------------------------------------------------------------|
|----------------------------------------------------------------------------|
|----------------------------------------------------------------------------|
                                                         T         T
|----------17-19-20-19-17-15-17-15-14-15-14-12-14-12-11--12p11p8/7-12p8p7----|
|-17-19-20-------------------------------------------------------------------|
|----------------------------------------------------------------------------|
|----------------------------------------------------------------------------|
|----------------------------------------------------------------------------|
|----------------------------------------------------------------------------|
  T      T      T              Sweep
|-12p7p5-12p5p3-12p3p2h3p2(3)-|------------7-12-7-------7---15-19-15----15---|
|-----------------------------|----------8--------8---8--------------17----17|
|-----------------------------|--------9------------9------------------------|
|-----------------------------|------9---------------------------------------|
|-----------------------------|-7-10-----------------------------------------|
|-----------------------------|----------------------------------------------|

|----------------------------------------------------------------------------|
|----17----------------------------------------------------------------------|
|-16----16----16-------------------------------------------------------------|
|----------17----17-------------------------------------------------17-19----|
|-------------------19------------17--------------------------17-19----------|
|----------------------19---19-20----20-19-20-19-15-17--17-19----------------|

|-15-17-14-17-12-17----17--15-17-14-17-12-17----17---15-17-14-17-12-17-------|
|-------------------15-----------------------15------------------------15~---|
|----------------------------------------------------------------------------|
|----------------------------------------------------------------------------|
|----------------------------------------------------------------------------|
|----------------------------------------------------------------------------|

|----------------------------------------------------------------17-19-20----|
|-------------------------------------17-19-20----------17-19-20-------------|
|----------14-16-17----------16-17-19----------16-17-19----------------------|
|-14-16-17----------16-17-19-------------------------------------------------|
|----------------------------------------------------------------------------|
|----------------------------------------------------------------------------|

|----------17-19-20----------19-20-22-22(24)---------------------------------|
|-17-19-20----------19-20-22-------------------------------------------------|
|----------------------------------------------------------------------------|
|----------------------------------------------------------------------------|
|----------------------------------------------------------------------------|
|----------------------------------------------------------------------------|

 After the Solo                fill
|-----------------------------|--------12--|---------------------------------|
|-----------------------------|-----12-----|---------------------------------|
|-9-----7-----5-----5--7---9--|--12--------|-9----7----5----4----------------|
|-9-----7-----5-----5--7---9--|-|----N.H--||-9----7----5----4----------------|
|-7-----5-----3-----3--5---7--|------------|-7----5----3----2----------------|
|-----------------------------|------------|---------------------------------|

Chorus 4x





Comments


Popular Manowar tabs & chords
Black Wind, Fire And Steel Bass Tabs
Black Wind, Fire And Steel 1 Bass Tabs
Warriors Of The World United Bass Tabs
Heart Of Steeel Chords
Blow Your Speakers 1 Tabs
Gates Of Valhalla Tabs
Hail To England 2 Tabs
Metal Daze Tabs
Shell Shock Tabs
Spirit Horse Of The Cherokee Tabs


Song lyrics



↑ Back to top | Tablatures and chords are parodies/interpretations of the original songs. You may use it for private study, scholarship, research or language learning purposes only
© 2014 AZChords.com Contact us | Privacy policy | DMCA | Add/correct tabs | Request tabs | Top 50 tabs