>
 >
Loki God Of Fire 1

Loki God Of Fire 1 Guitar Tabs

Manowar - Loki God Of Fire 1 chords, tabs, tablatures, lyrics

Guitar lessons | Add/correct | Request | Top 50 tabs Artists:  A B C D E F G H I J K L M N O P Q R S T U V W X Y Z 0-9

Loki God Of Fire 1 Guitar Tabs – Manowar

CD, Sheet music, Poster

Do you like Loki God Of Fire 1? Share with your friends now
TabsTabs v2
-------------------------------------------------------------------------------
			     Manowar  Loki God of Fire
-------------------------------------------------------------------------------

Written, engineered and produced by Joey DeMaio.
Recorded by Manowar, on their 'Gods of War' album, 2007.

Tuning: DADGBE (Drop D)


    DmC Dm                             DmC Dm
e|---------------------------------------------------------------|
B|--6-5-6------------------------------6-5-6---------------------|
G|--7-5-7------------------------------7-5-7---------------------|
D|--7-5-7---------------------------3--7-5-7---------------------|
A|--5-3-5---5-5-5-5-3-3-3-3-5-5-5-5----5-3-5---5-5-5-5-3-3-3-3-5\|
D|--------\----------------------------------\-------------------| x2


    Dm
e|---------------------------------------------------------------------------|
B|---------------------------------------------------------------------------|
G|--7--7--7-----------------7--7--7------------------7--7--7-----------------|
D|--7--7--7-----------------7--7--7------------------7--7--7-----------------|
A|--5--5--5-----------------5--5--5------------------5--5--5-----------------|
D|----------0-0-0-0-0-0-0-0----------0-0-0-0-0-0-0-0---------0-0-0-0-0-0-0-0-|

		    C
e|-----------------------|
B|-----------------------|
G|--7--7--7---------5-5--|
D|--7--7--7---------5-5--|
A|--5--5--5---------3-3--|
D|----------0-0-0-0------|

    Dm C  Dm                Dm C  Dm                 Dm C  Dm
e|---------------------------------------------------------------------------|
B|---------------------------------------------------------------------------|
G|--7--5--7-----------------7--5--7------------------7--5--7-----------------|
D|--7--5--7-----------------7--5--7------------------7--5--7-----------------|
A|--5--3--5-----------------5--3--5------------------5--3--5-----------------|
D|----------0-0-0-0-0-0-0-0----------0-0-0-0-0-0-0-0---------0-0-0-0-0-0-0-0-|
	    The sun of giants        Walks across the sky....


    Dm C  Dm                G  F  G  F  G F  G  F  G  F  Bb
e|-----------------------------------------------------------|
B|-----------------------------------------------------------|
G|--7--5--7--------------------------------------------------|
D|--7--5--7-----------------5--3--5--3--5-3--5--3--5--3--8-8-|
A|--5--3--5-----------------5--3--5--3--5-3--5--3--5--3--8-8-|
D|----------0-0-0-0-0-0-0-0-5--3--5--3--5-3--5--3--5--3--8-8-|
			As a falcon he did fly

    Dm C  Dm                Dm C  Dm
e|--------------------------------------------------|
B|--------------------------------------------------|
G|--7--5--7-----------------7--5--7-----------------|
D|--7--5--7-----------------7--5--7-----------------|
A|--5--3--5-----------------5--3--5-----------------|
D|----------0-0-0-0-0-0-0-0---------0-0-0-0-0-0-0-0-|
	    To take back the hammer....

    F                               Em              Eb
e|------------------------------------------------------------------|
B|------------------------------------------------------------------|
G|------------------------------------------------------------------|
D|--3-3-3-3-3-3-3-3-3-3-3-3-3-3-3-3-2-2-2-2-2-2-2-2-1-1-1-1-1-1-1-1-|
A|--3-3-3-3-3-3-3-3-3-3-3-3-3-3-3-3-2-2-2-2-2-2-2-2-1-1-1-1-1-1-1-1-|
D|--3-3-3-3-3-3-3-3-3-3-3-3-3-3-3-3-2-2-2-2-2-2-2-2-1-1-1-1-1-1-1-1-|
 He Lives between the worlds,   The Worlds of...        He is the -

    DmC Dm 			       DmC Dm
e|---------------------------------------------------------------|
B|--6-5-6------------------------------6-5-6---------------------|
G|--7-5-7------------------------------7-5-7---------------------|
D|--7-5-7---------------------------3--7-5-7---------------------|
A|--5-3-5---5-5-5-5-3-3-3-3-5-5-5-5----5-3-5---5-5-5-5-3-3-3-3-5\|
D|--------\----------------------------------\-------------------|
    god...  Burning...                 God...  Into the sky


    Dm C  Dm                Dm C  Dm                 Dm C  Dm
e|---------------------------------------------------------------------------|
B|---------------------------------------------------------------------------|
G|--7--5--7-----------------7--5--7------------------7--5--7-----------------|
D|--7--5--7-----------------7--5--7------------------7--5--7-----------------|
A|--5--3--5-----------------5--3--5------------------5--3--5-----------------|
D|----------0-0-0-0-0-0-0-0----------0-0-0-0-0-0-0-0---------0-0-0-0-0-0-0-0-|
            The father...         and the serpent...         The ruler...


    Dm C  Dm                G  F  G  F  G F  G  F  G  F  Bb
e|-----------------------------------------------------------|
B|-----------------------------------------------------------|
G|--7--5--7--------------------------------------------------|
D|--7--5--7-----------------5--3--5--3--5-3--5--3--5--3--8-8-|
A|--5--3--5-----------------5--3--5--3--5-3--5--3--5--3--8-8-|
D|----------0-0-0-0-0-0-0-0-5--3--5--3--5-3--5--3--5--3--8-8-|
	    A giant...    To Odin...       a brother...

    Dm C  Dm                Dm C  Dm
e|--------------------------------------------------|
B|--------------------------------------------------|
G|--7--5--7-----------------7--5--7-----------------|
D|--7--5--7-----------------7--5--7-----------------|
A|--5--3--5-----------------5--3--5-----------------|
D|----------0-0-0-0-0-0-0-0---------0-0-0-0-0-0-0-0-|
	    One who...		    Walks across...

    F                               Em              Eb
e|------------------------------------------------------------------|
B|------------------------------------------------------------------|
G|------------------------------------------------------------------|
D|--3-3-3-3-3-3-3-3-3-3-3-3-3-3-3-3-2-2-2-2-2-2-2-2-1-1-1-1-1-1-1-1-|
A|--3-3-3-3-3-3-3-3-3-3-3-3-3-3-3-3-2-2-2-2-2-2-2-2-1-1-1-1-1-1-1-1-|
D|--3-3-3-3-3-3-3-3-3-3-3-3-3-3-3-3-2-2-2-2-2-2-2-2-1-1-1-1-1-1-1-1-|
 He lives between...            The worlds of...          He is the...


    DmC Dm                             DmC Dm
e|---------------------------------------------------------------|
B|--6-5-6------------------------------6-5-6---------------------|
G|--7-5-7------------------------------7-5-7---------------------|
D|--7-5-7---------------------------3--7-5-7---------------------|
A|--5-3-5---5-5-5-5-3-3-3-3-5-5-5-5----5-3-5---5-5-5-5-3-3-3-3-5\|
D|--------\----------------------------------\-------------------| X 2
    God...  Burning...                 God...  Into...


Solo comes here  Im not even going to attempt to tab it :)
Heres the backing instead, if anyone can tab out the solo, i'll be happy to append it 
this tab - just mail me it.

    Dm
e|--------------------------------------------------------------------------|
B|--------------------------------------------------------------------------|
G|--------------------------------------------------------------------------|
D|--0-0-0-0-0-0-0-0-0-0-0-0-0-0-0-0-0-0-0-0-0-0-0-0-0-0-0-0-0-0-0-0-0-0-0-0-|
A|--0-0-0-0-0-0-0-0-0-0-0-0-0-0-0-0-0-0-0-0-0-0-0-0-0-0-0-0-0-0-0-0-0-0-0-0-|
D|--0-0-0-0-0-0-0-0-0-0-0-0-0-0-0-0-0-0-0-0-0-0-0-0-0-0-0-0-0-0-0-0-0-0-0-0-|

e|----------------------------------------------------------|
B|----------------------------------------------------------|
G|----------------------------------------------------------|
D|--0-0-0-0-0-0-0-0-0-0-0-0-0-0-0-0-0-0-0-0-0-0-0-0-0-0-0-0-|
A|--0-0-0-0-0-0-0-0-0-0-0-0-0-0-0-0-0-0-0-0-0-0-0-0-0-0-0-0-|
D|--0-0-0-0-0-0-0-0-0-0-0-0-0-0-0-0-0-0-0-0-0-0-0-0-0-0-0-0-|


    G  F  G  F  G F  G  F  G  F  Bb
e|-----------------------------------|
B|-----------------------------------|
G|-----------------------------------|
D|--5--3--5--3--5-3--5--3--5--3--8-8-|
A|--5--3--5--3--5-3--5--3--5--3--8-8-|
D|--5--3--5--3--5-3--5--3--5--3--8-8-|

    Dm
e|------------------------------------------------------------------|
B|------------------------------------------------------------------|
G|------------------------------------------------------------------|
D|--0-0-0-0-0-0-0-0-0-0-0-0-0-0-0-0-0-0-0-0-0-0-0-0-0-0-0-0-0-0-0-0-|
A|--0-0-0-0-0-0-0-0-0-0-0-0-0-0-0-0-0-0-0-0-0-0-0-0-0-0-0-0-0-0-0-0-|
D|--0-0-0-0-0-0-0-0-0-0-0-0-0-0-0-0-0-0-0-0-0-0-0-0-0-0-0-0-0-0-0-0-|

    F      			    Em              Eb
e|------------------------------------------------------------------|
B|------------------------------------------------------------------|
G|------------------------------------------------------------------|
D|--3-3-3-3-3-3-3-3-3-3-3-3-3-3-3-3-2-2-2-2-2-2-2-2-1-1-1-1-1-1-1-1-|
A|--3-3-3-3-3-3-3-3-3-3-3-3-3-3-3-3-2-2-2-2-2-2-2-2-1-1-1-1-1-1-1-1-|
D|--3-3-3-3-3-3-3-3-3-3-3-3-3-3-3-3-2-2-2-2-2-2-2-2-1-1-1-1-1-1-1-1-|

    Bb            F             Em            Dm             F
e|--------------------------------------------------------------------------|
B|--------------------------------------------------------------------------|
G|--------------------------------------------------------------------------|
D|--8--8-8-8-8-8--3--3-3-3-3-3--2--2-2-2-2-2--0--0-0-0-0-0-0-3--3-3-3-3-3-3-|
A|--8--8-8-8-8-8--3--3-3-3-3-3--2--2-2-2-2-2--0--0-0-0-0-0-0-3--3-3-3-3-3-3-|
D|--8--8-8-8-8-8--3--3-3-3-3-3--2--2-2-2-2-2--0--0-0-0-0-0-0-3--3-3-3-3-3-3-|
    Brother to...           and Odin god of   War	     Loki god...

    G              A
e|---------------------------------|
B|---------------------------------|
G|---------------------------------|
D|--5--5-5-5-5-5-5-7--7--7--7--7-7-|
A|--5--5-5-5-5-5-5-7--7--7--7--7-7-|
D|--5--5-5-5-5-5-5-7--7--7--7--7-7-|
    Fire...        Reigns...

    Dm
e|---------------------------------------------------------------------------|
B|---------------------------------------------------------------------------|
G|--7--7--7-----------------7--7--7------------------7--7--7-----------------|
D|--7--7--7-----------------7--7--7------------------7--7--7-----------------|
A|--5--5--5-----------------5--5--5------------------5--5--5-----------------|
D|------------0-0-0-0-0-0-0-----------0-0-0-0-0-0-0------------0-0-0-0-0-0-0-|
  A Father...       And the Serpent...		 The Ruler...


                            G   F G
e|----------------------------------------------------------|
B|----------------------------------------------------------|
G|--7--7--7-------------------------------------------------|
D|--7--7--7-----------------5-5-3-5-5-5-5-5-5-5-5-5-5-5-5-5-|
A|--5--5--5-----------------5-5-3-5-5-5-5-5-5-5-5-5-5-5-5-5-|
D|------------0-0-0-0-0-0-0-5-5-3-5-5-5-5-5-5-5-5-5-5-5-5-5-|
  A Giant...             To Odin...

    G   F G                         A   G A
e|------------------------------------------------------------------|
B|------------------------------------------------------------------|
G|------------------------------------------------------------------|
D|--5-5-3-5-5-5-5-5-5-5-5-5-5-5-5-5-7-7-5-7-7-7-7-7-7-7-7-7-7-7-7-7-|
A|--5-5-3-5-5-5-5-5-5-5-5-5-5-5-5-5-7-7-5-7-7-7-7-7-7-7-7-7-7-7-7-7-|
D|--5-5-3-5-5-5-5-5-5-5-5-5-5-5-5-5-7-7-5-7-7-7-7-7-7-7-7-7-7-7-7-7-|
  A Brother... 			    One who...

    A   G A
e|----------------------------------|
B|----------------------------------|
G|----------------------------------|
D|--7-7-5-7-7-7-7-7-7-7-7-7-7-7-7-7-|
A|--7-7-5-7-7-7-7-7-7-7-7-7-7-7-7-7-|
D|--7-7-5-7-7-7-7-7-7-7-7-7-7-7-7-7-|
Who Walks...

    DmC Dm                             DmC Dm
e|---------------------------------------------------------------|
B|--6-5-6------------------------------6-5-6---------------------|
G|--7-5-7------------------------------7-5-7---------------------|
D|--7-5-7---------------------------3--7-5-7---------------------|
A|--5-3-5---5-5-5-5-3-3-3-3-5-5-5-5----5-3-5---5-5-5-5-3-3-3-3-5\|x12 to
D|--------\----------------------------------\-------------------|finish
    God...  Burning...		       God...  Into...

On the 5th repetition, another guitar enters and shreds quite happily until the end of 
piece.

My apologies I couldn't tab out the solo and shredding on the outro,my ear's not quite 
hot yet.


Keep on playing true metal! Matt!

===============================================================================





Comments


Popular Manowar tabs & chords
Hail And Kill 3 Bass Tabs
Hail To England 2 Bass Tabs
I Believe Bass Tabs
Swords In The Wind Bass Tabs
The Gods Made Heavy Metal Bass Tabs
Kingdom Come Chords
Blood Of The King Tabs
Defender 1 Tabs
Thor 1 Tabs
Heart Of Steeel Ukulele


Song lyrics



↑ Back to top | Tablatures and chords are parodies/interpretations of the original songs. You may use it for private study, scholarship, research or language learning purposes only
© 2014 AZChords.com Contact us | Privacy policy | DMCA | Add/correct tabs | Request tabs | Top 50 tabs