» » »

Kill With Power Tabs (ver.1)

Artists:  A B C D E F G H I J K L M N O P Q R S T U V W X Y Z # 

Kill With Power Tabs (ver.1)

Manowar
Rating:
0/5 (0 votes)

Hard to play? Try these video lessons and learn fast.
                Intro

|-----------------------------------------------------------------------
|-----------------------------------------------------------------------
|-----------------------------------------------------------------------
|-----------------------------------------------------------------------
|-----------------------------------------------------------------------
|-0-0-0-0-0-0-0-0-0-0-0-0-12 \slide-------------------------------------
Intro


|-----------------------------------------------------------------------
|-----------------------------------------------------------------------
|--------------------5--5--5---5---4----------------------------------------
|--2--2---2----5-----5--5--5---4---2------------------------------------
|--2--2---2----5-----3--3--3---2---2------------------------------------
|--0--0---0----3-------------------------0-0-0-0-0-0-0-0-0--0-0-0-0-0---------

|----------------------------------------------------------|--------------
|----------------------------------------------------------|--------------
|------------------5--5--5---4---2-2--2--4----5--5--5---7-*|--------------
|--2--2--2---5-----5--5--5---4---2-2--2--4----5--5--5---7--|--2-----------
|--2--2--2---5-----3--3--3---2---0-0--0--2----3--3--3---5-*|--2-----------
|--0--0--0---3---------------------------------------------|--0-0-0-0-0-0-
            
Hard to play? Try these video lessons and learn fast. | Correct




comments powered by Disqus
↑ Back to top | Tablatures and chords are parodies/interpretations of the original songs. You may use it for private study, scholarship, research or language learning purposes only