» » »

Manowar, House Of Death Tabs (ver.1)

Artists:  A B C D E F G H I J K L M N O P Q R S T U V W X Y Z # 

House Of Death Tabs (ver.1)

Manowar Tabs
 Rating:
4/5 (4 votes)
House Of Death lessons Tabs too difficult? Try these video lessons and learn fast
1
                (Intro)
Opening Solo
watch for timing
D|----------------------------------|
A|----------------------------------|
F|-2-0-2-0-2-0-2-0-2-0-2-0-2-0-2----|
C|-5--------------------------------|
G|-3--------------------------------|
D|----------------------------------|

|----------------------------------|
|----------------------------------|
|-5-4-5-4-5-4-5-4-5-4-5-4-5-4-5-4--|
|----------------------------------|
|----------------------------------|
|----------------------------------|

|------------------------------------|
|------------------------------------|
|-7-5-7-5-7-5-7-5-7-5-7-5-7-5-7-5--5-|
|------------------------------------|
|------------------------------------|
|------------------------------------|

|----------------------------------|
|----------------------------------|
|-2-4-2-4-2-4-2-4-2-4-2-4-2-4-2-4--|
|----------------------------------|
|----------------------------------|
|----------------------------------|

|----------------------------------|
|----------------------------------|
|-7-6-7-6-7-6-7-6-7-6-7-6-7-6-7-6--|
|----------------------------------|
|----------------------------------|
|----------------------------------|

|-----------------------------------------|
|-----------------------------------------|
|-9-7-9-7-9-7-9-7-9-7-9-7-9-7-9-7--7------|
|--------------------------------------9--|
|--------------------------------------7--|
|--------------------------------------0--|

Main Riff
|---------------------------------|
|---------------------------------|
|---------------------------------|
|-9---------------9-7-9-----------|
|-7---------------7-5-7-----------|
|---0-0-0-0-0-0-0-----------------|

|---------------------------------|
|---------------------------------|
|---------------------------------|
|-9---------------9-7-5-----------|
|-7---------------7-5-3-----------|
|---0-0-0-0-0-0-0-----------------|



|-------------------------------|
|-------------------------------|
|------------------7------------|
|-2----5---2--5-4--5------------|
|-2----5---2--3-5---------------|
|-0----3---0--------------------|

sorry i don't have the acoustic part and solo's.
corrections are welcome
            
Submit corrections

comments powered by Disqus
↑ Back to top | Manowar Tabs for House Of Death. Lyrics for acoustic guitar and electric guitar. 1 Tablatures and chords are parodies/interpretations of the original songs. You may use it for private study, scholarship, research or language learning purposes only