>
 >
Hail To England

Hail To England Guitar Tabs

Manowar - Hail To England chords, tabs, tablatures, lyrics

Guitar lessons | Add/correct | Request | Top 50 tabs Artists:  A B C D E F G H I J K L M N O P Q R S T U V W X Y Z 0-9

Hail To England Guitar Tabs – Manowar

CD, Sheet music, Poster

Do you like Hail To England? Share with your friends now
Bass TabsBass Tabs v2TabsTabs v2Tabs v3
HAIL TO ENGLAND
                             As recorded by Manowar
                      (From the 1984 Album HAIL TO ENGLAND)

Words and Music by Manowar


Gtr I (E A D G B E) - 'Guitar 1 (left)'
Gtr II (E A D G B E) - 'Guitar 2 (right)'
Gtr III (E A D G B E) - 'Lead (solo)'
Gtr IV (E A D G B E) - 'Rhythm (under solo)'

 Intro
  
  E5   D5    E5       D5    E5       D5    E5       D5    E5
 
  Gtrs I, II
|--------------|--------------|--------------|--------------|
|--------------|--------------|--------------|--------------|
|-9--9-7-7-7s9-|-9--9-7-7-7s9-|-9--9-7-7-7s9-|-9--9-7-7-7s9-|
|-9--9-7-7-7s9-|-9--9-7-7-7s9-|-9--9-7-7-7s9-|-9--9-7-7-7s9-|
|-7--7-5-5-5s7-|-7--7-5-5-5s7-|-7--7-5-5-5s7-|-7--7-5-5-5s7-|
|--------------|--------------|--------------|--------------|


  C       B A   G             A             B
  PM--------------------------------------------------|
|-------------|-------------|-------------|--------------|
|-------------|-------------|-------------|--------------|
|-------------|-------------|-------------|--------------|
|-------------|-------------|-------------|--------------|
|-------------|-------------|-------------|--------------|
|-8-8-8-8-7-5-|-3-3-3-3-3-3-|-5-5-5-5-5-5-|-7-7-7-7-7-7--|


    E5   D5    E5       D5    E5       D5    E5       D5    E5
||---------------|--------------|--------------|--------------|
||o--------------|--------------|--------------|--------------|
||--9--9-7-7-7s9-|-9--9-7-7-7s9-|-9--9-7-7-7s9-|-9--9-7-7-7s9-|
||--9--9-7-7-7s9-|-9--9-7-7-7s9-|-9--9-7-7-7s9-|-9--9-7-7-7s9-|
||o-7--7-5-5-5s7-|-7--7-5-5-5s7-|-7--7-5-5-5s7-|-7--7-5-5-5s7-|
||---------------|--------------|--------------|--------------|


   Verse
    C       B A   G             A             B
    PM--------------------------------------------------|
||--------------|-------------|-------------|-------------|
||o-------------|-------------|-------------|-------------|
||--------------|-------------|-------------|-------------|
||--------------|-------------|-------------|-------------|
||o-------------|-------------|-------------|-------------|
||--8-8-8-8-7-5-|-3-3-3-3-3-3-|-5-5-5-5-5-5-|-7-7-7-7-7-7-|


  E5   D5    E5       D5    E5       D5    E5       D5    E5
                                                              3x
|--------------|--------------|--------------|----------------||
|--------------|--------------|--------------|---------------o||
|-9--9-7-7-7s9-|-9--9-7-7-7s9-|-9--9-7-7-7s9-|-9--9-7-7-7s9---||
|-9--9-7-7-7s9-|-9--9-7-7-7s9-|-9--9-7-7-7s9-|-9--9-7-7-7s9---||
|-7--7-5-5-5s7-|-7--7-5-5-5s7-|-7--7-5-5-5s7-|-7--7-5-5-5s7--o||
|--------------|--------------|--------------|----------------||


  C       B A   G             A             B
  PM--------------------------------------------------|
|-------------|-------------|-------------|--------------|
|-------------|-------------|-------------|--------------|
|-------------|-------------|-------------|--------------|
|-------------|-------------|-------------|--------------|
|-------------|-------------|-------------|--------------|
|-8-8-8-8-7-5-|-3-3-3-3-3-3-|-5-5-5-5-5-5-|-7-7-7-7-7-7--|


 Pre-Chorus
  A5                 B5    E5                  A5                 D5
|--------------|---------|--------|----------|--------------|---------|
|--------------|---------|--------|----------|--------------|---------|
|-2----(2)-(2)-|-2---4---|--------|----------|-2----(2)-(2)-|-2---7---|
|-2----(2)-(2)-|-2---4---|-2------|-(2)------|-2----(2)-(2)-|-2---7---|
|-0-----0---0--|-0---2---|-2------|-(2)------|-0-----0---0--|-0---5---|
|--------------|---------|-0------|-(0)------|--------------|---------|


  E5                  A5                 B5    E5
|--------|----------|--------------|---------|--------|--------|
|--------|----------|--------------|---------|--------|--------|
|--------|----------|-2----(2)-(2)-|-2---4---|--------|--------|
|-2------|-(2)------|-2----(2)-(2)-|-2---4---|-2------|-(2)----|
|-2------|-(2)------|-0-----0---0--|-0---2---|-2------|-(2)----|
|-0------|-(0)------|--------------|---------|-0------|-(0)----|


    D5       D5/Db    C5       C5/B     Bb5
||---------|--------|--------|--------|--------|
||o--------|--------|--------|--------|--------|
||--7------|-7------|-5------|-5------|-3------|
||--7------|-7------|-5------|-5------|-3------|
||o-5------|-4------|-3------|-2------|-1------|
||---------|--------|--------|--------|--------|


  A5       G5
|--------|---------|-------------------------||
|--------|---------|------------------------o||
|-2------|---------|-------------------------||
|-2------|-5---5---|-/12-12-12-12-12-12\-----||
|-0------|-5---5---|-/10-10-10-10-10-10\----o||
|--------|-3---3---|-------------------------||


   Chorus
    F5          E5         D5
        PM--|        PM|        PM|     PM|   PM|
                                                   3x
||------------|----------|----------|--------------||
||o-----------|----------|----------|-------------o||
||------------|----------|-7--------|-7-----7------||
||--3---------|-2--------|-7--------|-7-----7------||
||o-3---3-3-3-|-2----2-2-|-5----5-5-|-5-5-5-5-5-5-o||
||--1---1-1-1-|-0----0-0-|----------|--------------||


  F5          E5         D5
      PM--|        PM|
|-----------|----------|--------------||
|-----------|----------|-------------o||
|-----------|----------|-7----(7)-----||
|-3---------|-2--------|-7----(7)-----||
|-3---3-3-3-|-2----2-2-|-5----(5)----o||
|-1---1-1-1-|-0----0-0-|----------7\--||


 Guitar Solo
  E5   D5    E5         D5      E5        D5    E5         D5    E5
  Gtr III
  ~                ~~~~~~~~~~~~~~~~~~~~~~~~~~~~~~~~~~~~~
|--------------|------------------|---------------|----------------|
|--------------|------------------|---------------|----------------|
|--------------|------------------|---------------|----------------|
|--------------|------------------|-/9------------|-(9)------------|
|-7------------|-7h9----/10-------|---------------|----------------|
|--------------|------------------|---------------|----------------|
|
| Gtr IV
|--------------|------------------|---------------|----------------|
|--------------|------------------|---------------|----------------|
|-9--9-7-7-7s9-|---9--9---7-7-7s9-|--9--9-7-7-7s9-|--9---9-7-7-7s9-|
|-9--9-7-7-7s9-|---9--9---7-7-7s9-|--9--9-7-7-7s9-|--9---9-7-7-7s9-|
|-7--7-5-5-5s7-|---7--7---5-5-5s7-|--7--7-5-5-5s7-|--7---7-5-5-5s7-|
|--------------|------------------|---------------|----------------|


  C        B  A    G
   ~~               ~~
|----------------|----------------|
|----------10h12-|----------------|
|-12-------------|-12-------12p11-|
|----------------|----------------|
|----------------|----------------|
|----------------|----------------|
|
|  PM------------------------------
|----------------|----------------|
|----------------|----------------|
|----------------|----------------|
|----------------|----------------|
|----------------|----------------|
|--8-8-8-8--7--5-|--3-3-3-3--3--3-|


  A                                  B
                                               ~~
|----------------------------------|-----------------|
|----------------------------------|-----------------|
|-12p11h12p11h12p11h12p11h12p11h12p|=11h12p11--------|
|----------------------------------|----------14-----|
|----------------------------------|-----------------|
|----------------------------------|-----------------|
|
|--------------------------------------------------|
|----------------------------------|-----------------|
|----------------------------------|-----------------|
|----------------------------------|-----------------|
|----------------------------------|-----------------|
|----------------------------------|-----------------|
|--5--5-----5-----5-----5-----5----|--7--7--7--7-7-7-|


  E5   D5    E5         D5     E5        D5    E5         D5    E5
                                    ~~~~~~~~~~~~~~~~~~~
|--------------|-----------------|---------------|----------------|
|--------------|-----------------|---------------|----------------|
|--------------|-----------------|---------------|----------------|
|--------------|-----------------|---------------|----------------|
|--------------|-----------------|-/7------------|-(7)------------|
|-0------------|-0h2----/7-------|---------------|----------------|
|
|--------------|-----------------|---------------|----------------|
|--------------|-----------------|---------------|----------------|
|-9--9-7-7-7s9-|---9--9--7-7-7s9-|--9--9-7-7-7s9-|--9---9-7-7-7s9-|
|-9--9-7-7-7s9-|---9--9--7-7-7s9-|--9--9-7-7-7s9-|--9---9-7-7-7s9-|
|-7--7-5-5-5s7-|---7--7--5-5-5s7-|--7--7-5-5-5s7-|--7---7-5-5-5s7-|
|--------------|-----------------|---------------|----------------|


  C            B     A       G
|--------------------------|-12----12--------------|
|-15b17========(15)r-15b17-|----15----15pb17r12----|
|--------------------------|--------------------14-|
|--------------------------|-----------------------|
|--------------------------|-----------------------|
|--------------------------|-----------------------|
|
|  PM-----------------------------------------------
|--------------------------|-----------------------|
|--------------------------|-----------------------|
|--------------------------|-----------------------|
|--------------------------|-----------------------|
|--------------------------|-----------------------|
|--8-----8-8-8---7----5----|--3--3--3--3------3--3-|


  A                      B
                          ~~
|----------------------|---------------|
|-12-------------------|---------------|
|----14-12-14b16r14-12-|---------------|
|----------------------|-14------------|
|----------------------|---------------|
|----------------------|---------------|
|
|-----------------------------------|
|----------------------|---------------|
|----------------------|---------------|
|----------------------|---------------|
|----------------------|---------------|
|----------------------|---------------|
|--5--5--5--5-----5--5-|--7-7-7-7-7-7--|


  E5    D5    E5        D5     E5        D5    E5          D5    E5
   ~~~~~~~~~~~~~~~~~~~~~~~~~~~~~~~~~~~~~~~~~~~~~~~~~~~~~
|-12------------|-14----15-------|-19------------|-(19)-------------|
|---------------|----------------|---------------|------------------|
|---------------|----------------|---------------|------------------|
|---------------|----------------|---------------|------------------|
|---------------|----------------|---------------|------------------|
|---------------|----------------|---------------|------------------|
|
|---------------|----------------|---------------|------------------|
|---------------|----------------|---------------|------------------|
|--9--9-7-7-7s9-|--9--9--7-7-7s9-|--9--9-7-7-7s9-|---9---9-7-7-7s9--|
|--9--9-7-7-7s9-|--9--9--7-7-7s9-|--9--9-7-7-7s9-|---9---9-7-7-7s9--|
|--7--7-5-5-5s7-|--7--7--5-5-5s7-|--7--7-5-5-5s7-|---7---7-5-5-5s7--|
|---------------|----------------|---------------|------------------|


  C                          B     A       G
|-------------------------------------|-------------------------------------|
|-15-12-15-12-------------------------|-------------------------------------|
|-------------14-12-14----------------|-------------------------------------|
|----------------------12-14-12-------|----------------------------------12-|
|-------------------------------15-14-|-12----------------12-14-15-14-15----|
|-------------------------------------|----15-13-12-13-15-------------------|
|
|  PM------------------------------------------------------------------------
|-------------------------------------|-------------------------------------|
|-------------------------------------|-------------------------------------|
|-------------------------------------|-------------------------------------|
|-------------------------------------|-------------------------------------|
|-------------------------------------|-------------------------------------|
|--8-----8-----8-----8-----7-----5----|--3-----3-----3-----3-----3-----3----|


  A                                     B
|-------------------------------------|----------------------------------------|
|-------------------------------------|-------------12-13-15-12-13-15-12-15----|
|----------------------------------14-|-12-14-12-14----------------------------|
|-14-12-14----------12-14-12-14-12----|----------------------------------------|
|----------15-14-15-------------------|----------------------------------------|
|-------------------------------------|----------------------------------------|
|
|---------------------------------------------------------------------|
|-------------------------------------|----------------------------------------|
|-------------------------------------|----------------------------------------|
|-------------------------------------|----------------------------------------|
|-------------------------------------|----------------------------------------|
|-------------------------------------|----------------------------------------|
|--5-----5-----5-----5-----5-----5----|--7-----7-----7-----7-----7-----7-------|


  E5                D5            E5                        D5            E5
|-15p12-------15p12-------15p12---------|-15p12-------15p12-------15p12---------|
|-------12h15-------12h15---------12h15-|-------12h15-------12h15---------12h15-|
|---------------------------------------|---------------------------------------|
|---------------------------------------|---------------------------------------|
|---------------------------------------|---------------------------------------|
|---------------------------------------|---------------------------------------|
|
|---------------------------------------|---------------------------------------|
|---------------------------------------|---------------------------------------|
|--9-----------9-----7-----7----7s=9----|--9-----------9-----7-----7----7s=9----|
|--9-----------9-----7-----7----7s=9----|--9-----------9-----7-----7----7s=9----|
|--7-----------7-----5-----5----5s=7----|--7-----------7-----5-----5----5s=7----|
|---------------------------------------|---------------------------------------|


               D5    E5            D5    E5
                          ~~~~~~
|-15b17===(15)r========|=17b19==============|
|----------------------|--------------------|
|----------------------|--------------------|
|----------------------|--------------------|
|----------------------|--------------------|
|----------------------|--------------------|
|
|----------------------|--------------------|
|----------------------|--------------------|
|--9--------9--7-7-7s9-|--9------9-7-7-7s9--|
|--9--------9--7-7-7s9-|--9------9-7-7-7s9--|
|--7--------7--5-5-5s7-|--7------7-5-5-5s7--|
|----------------------|--------------------|


  C          B  B    G
   ~~~
|-17r==15-17-19-15-|----------15----|
|------------------|-17----------17-|
|------------------|----------------|
|------------------|----------------|
|------------------|----------------|
|------------------|----------------|
|
|  PM--------------------------------
|------------------|----------------|
|------------------|----------------|
|------------------|----------------|
|------------------|----------------|
|------------------|----------------|
|--8-8--8--8--7--5-|--3-3-3-3--3--3-|


  A                            B
                     ~~~~~~~~~~~~~~~
|-14-15p14h15p14-------------|----------------|
|----------------17-17pb19r==|=(17)-----------|
|----------------------------|----------------|
|----------------------------|----------------|
|----------------------------|----------------|
|----------------------------|----------------|
|
|-------------------------------------------|
|----------------------------|----------------|
|----------------------------|----------------|
|----------------------------|----------------|
|----------------------------|----------------|
|----------------------------|----------------|
|--5--5-----5-----5--5-----5-|---7--7-7-7-7-7-|


 Pre-Chorus 3
  A5                    B5           E5
                               \1/
|----0----------|-(0)-----(0)-(0)--|-(0)------|
|-0-------------|------------------|----------|
|---------------|------------------|----------|
|---------------|------------------|----------|
|---------------|------------------|----------|
|---------------|------------------|----------|
|
|---------------|------------------|----------|
|---------------|------------------|----------|
|-2-----(2)-(2)-|--2----4----------|----------|
|-2-----(2)-(2)-|--2----4----------|--2-------|
|-0------0---0--|--0----2----------|--2-------|
|---------------|------------------|--0-------|


               A5                         D5
|-([0])------|-([0])------------|-([0])-------|
|-(17)-------|-(17)-------------|-(17)--------|
|------------|------------------|-------------|
|------------|------------------|-------------|
|------------|------------------|-------------|
|------------|------------------|-------------|
|
|------------|------------------|-------------|
|------------|------------------|-------------|
|------------|---2------(2)-(2)-|---2-----7---|
|--(2)-------|---2------(2)-(2)-|---2-----7---|
|--(2)-------|---0-------0---0--|---0-----5---|
|--(0)-------|------------------|-------------|


  E5
                                \1/
|-([0])------|-([0])----([0])-([0])-|
|-(17)-------|-(17)-----(17)--(17)--|
|------------|----------------------|
|------------|----------------------|
|------------|----------------------|
|------------|----------------------|
|
|------------|----------------------|
|------------|----------------------|
|------------|----------------------|
|---2--------|--(2)-----------------|
|---2--------|--(2)-----------------|
|---0--------|--(0)-----------------|


  A5                     B5    E5
   ~~~~~~~~~~~~~~~~~~~~
|-12------------|-(12)-------|-15------|-14-----|
|---------------|------------|---------|--------|
|---------------|------------|---------|--------|
|---------------|------------|---------|--------|
|---------------|------------|---------|--------|
|---------------|------------|---------|--------|
|
|---------------|------------|---------|--------|
|---------------|------------|---------|--------|
|--2----(2)-(2)-|---2----4---|---------|--------|
|--2----(2)-(2)-|---2----4---|--2------|-(2)----|
|--0-----0---0--|---0----2---|--2------|-(2)----|
|---------------|------------|--0------|-(0)----|


    Q=145
    D5         D5/Db      C5         C5/B
    Gtr I
||-----------|----------|----------|----------|
||o----------|----------|----------|----------|
||--7--------|-7--------|-5--------|-5--------|
||--7----7-7-|-7----7-7-|-5----5-5-|-5----5-5-|
||o-5----5-5-|-4----4-4-|-3----3-3-|-2----2-2-|
||-----------|----------|----------|----------|
|
|   Gtr II
||-----------|----------|----------|----------|
||o----------|----------|----------|----------|
||--7--------|-7--------|-5--------|-5--------|
||--7--------|-7--------|-5--------|-5--------|
||o-5--------|-4--------|-3--------|-2--------|
||-----------|----------|----------|----------|


  Bb5      A5       G5
                                PM------------|
|--------|--------|---------|-------------------------||
|--------|--------|---------|------------------------o||
|-3------|-2------|---------|-------------------------||
|-3------|-2------|-5---5---|-------------------------||
|-1------|-0------|-5---5---|---5--5--5--5--5--5-----o||
|--------|--------|-3---3---|---3--3--3--3--3--3------||
|
|--------|--------|---------|-------------------------||
|--------|--------|---------|------------------------o||
|-3------|-2------|---------|-------------------------||
|-3------|-2------|-5---5---|-/12-12-12-12-12-12\-----||
|-1------|-0------|-5---5---|-/10-10-10-10-10-10\----o||
|--------|--------|-3---3---|-------------------------||


    H.=H
    F5          E5         D5
    Gtrs I, II
        PM--|        PM|        PM|     PM|   PM|
                                                   3x
||------------|----------|----------|--------------||
||o-----------|----------|----------|-------------o||
||------------|----------|-7--------|-7-----7------||
||--3---------|-2--------|-7--------|-7-----7------||
||o-3---3-3-3-|-2----2-2-|-5----5-5-|-5-5-5-5-5-5-o||
||--1---1-1-1-|-0----0-0-|----------|--------------||


  F
|--------|----------|--------|
|--------|----------|--------|
|--------|----------|--------|
|-3------|-(3)------|-(3)----|
|-3------|-(3)------|-(3)----|
|-1------|-(1)------|-(1)----|


  E5
|--------|----------|----------|--------|
|--------|----------|----------|--------|
|--------|----------|----------|--------|
|-2------|-(2)------|-(2)------|-(2)----|
|-2------|-(2)------|-(2)------|-(2)----|
|-0------|-(0)------|-(0)------|-(0)----|


  Q=145
  D5
           TP        TP         TP
|--------|--------|----------|----------|
|--------|--------|----------|----------|
|-7------|-7------|-(7)------|-(7)------|
|-7------|-7------|-(7)------|-(7)------|
|-5------|-5------|-(5)------|-(5)------|
|--------|--------|----------|----------|


   TP         TP         TP
|----------|----------|-----------|------------*|
|----------|----------|-----------|------------*|
|-(7)------|-(7)------|-(7)----7--|-(7)---5-7\-*|
|-(7)------|-(7)------|-(7)----7--|-(7)---5-7\-*|
|-(5)------|-(5)------|-(5)----5--|-(5)---3-5\-*|
|----------|----------|-----------|------------*|


Tablature Legend
----------------
 h   - hammer-on
 p   - pull-off
 b   - bend
 pb  - pre-bend
 r   - bend release (if no number after the r, then release immediately)
 /\  - slide into or out of (from/to "nowhere")
 s   - legato slide
 S   - shift slide
  - natural harmonic
[n]  - artificial harmonic
n(n) - tapped harmonic
 ~   - vibrato
 tr  - trill
 T   - tap
 TP  - trem. picking
 PM  - palm muting
\n/  - tremolo bar dip; n = amount to dip
 \n  - tremolo bar down
 n/  - tremolo bar up
/n\  - tremolo bar inverted dip
 =   - hold bend; also acts as connecting device for hammers/pulls
   - volume swell (louder/softer)
 x   - on rhythm slash represents muted slash
 o   - on rhythm slash represents single note slash

Misc Legend
-----------
 |  - bar
||  - double bar
||o - repeat start
o|| - repeat end
*|  - double bar (ending)
 :  - bar (freetime)
 $  - Segno
 &  - Coda





Comments


Popular Manowar tabs & chords
Brothers Of Metal Bass Tabs
Hail To England Bass Tabs
Hail To England 2 Bass Tabs
Kings Of Metal Bass Tabs
Blood Brothers Chords
Bridge Of Death 1 Tabs
Death Tone Tabs
Heart Of Steel Tabs
House Of Death Intro Tabs
Sons Of Odin Tabs


Song lyrics



↑ Back to top | Tablatures and chords are parodies/interpretations of the original songs. You may use it for private study, scholarship, research or language learning purposes only
© 2014 AZChords.com Contact us | Privacy policy | DMCA | Add/correct tabs | Request tabs | Top 50 tabs