>
 >
Guyana

Guyana Bass Tabs

Manowar - Guyana chords, tabs, tablatures, lyrics

Guitar lessons | Add/correct | Request | Top 50 tabs Artists:  A B C D E F G H I J K L M N O P Q R S T U V W X Y Z 0-9

Guyana Bass Tabs – Manowar

CD, Sheet music, Poster

Do you like Guyana? Share with your friends now
Bass Tabs
Standard Tuning

INTRO 
|----------------------------------------------------------------------------|
|--------------7-9--9-9-10-9-10-9-7-7----------------------------------------|
|-7---7-7-9-10------------------------10-9--------10-9-10-7------------------|
|------------------------------------------8--8-8-----------10-7--3-5-7-5-3-2|

|----------------------------------------------------------------------------|
|-------------7-9/21-21-22-21-22-21-19-19------------------------------------|
|-7--7-7-9-10-----------------------------22-21---------10-9-10-7------------|
|-----------------------------------------------20---8-----------10-7--------|

|-------------|4x------------------------------------------------------------|
|-------------|------------7-9-9---------------------------------------------|
|-------------|-7-7-7-9-10-------10-9--7-7-7-9-10-------7-9-10---------------|
|-3-5-7-5-3-2-|-----------------------------------8-8-8----------------------|

|-4x-------------------------------------------------------------------------|
|----------------------------------------------------------------------------|
|------------------------------------------N.H-------------------------------|
|-0---2-3-5--3-5-7--5-7-8--7-8-10--8-10-12-12--------------------------------|

|----------------------------------------------------------------------------|
|-9---7---5---4----2---4---5---2----4---5---7---5---7---5---7---5------------|
|---7---7---7---7----3---3---3---3----5---5---5---7---5---5---5--------------|
|----------------------------------------------------------------------------|

|-----------------------------------------------4----------------------------|
|-9---7---5---4----2---4---5---2----4---5---7-------7---5---4----------------|
|---7---7---7---7----3---3---3---3----5---5---5---5---5---5---5--------------|
|----------------------------------------------------------------------------|

|----------------------------------------------------------------------------|
|-9---7---5---4----2---4---5---2----4---5---7---5---7---5---7---5------------|
|---7---7---7---7----3---3---3---3----5---5---5---5---5---5---5--------------|
|----------------------------------------------------------------------------|

|----------------------------------------------------------------------------|
|-9---7---5---4----2---4---5---2---------------------------------------------|
|---7---7---7---7----3---3---3---3---5-5-5-3-3-3-2-2-2-------2---2---2---2---|
|------------------------------------------------------5-5-5---0---0---0---0-|

                 Thank you for the kool aid reverend jim
|----------------------------------------------------------------------------|
|----------------------------------------------------------------------------|
|-2-2-2-2-2-2/14-14-14-14-14-14-14-14-14-14-12-12-12-12-10-10-10-10-12-12-12-|
|----------------------------------------------------------------------------|

           We're glad to leave behind their world of sin
|----------------------------------------------------------------------------|
|----------------------------------------------------------------------------|
|-12-12-12-12-12-12-12-12-10-10-10-10-10-10-9-9-9-7-7-7-7-7-7-7-7-7-7-7-7-7--|
|----------------------------------------------------------------------------|

    Our lifeless bodies fall on holy ground
|----------------------------------------------------------------------------|
|----------------------------------------------------------------------------|
|-14-14-14-14-14-14-14-14-14-17-17-17-17-17-17-17-17-14-14-14-14-14-14-14-14-|
|----------------------------------------------------------------------------|

Rotting Flesh a Sacrificial mound
|----------------------------------------------------------------------------|
|----------------------------------------------------------------------------|
|-12-12-12-12-12-12-12-10-10-10-10-10-10-9-9-9-9-7-7-7-7-7-7-7-7-7-7-7-7-7-7-|
|----------------------------------------------------------------------------|

I quess these notes should be played as Chords but I didn't managed to find
the chords...

Were you are god or a man in a play         who took our applause and
|2x--------------------------------------------------------------------------|
|----------12-12-------------------------------------------------------------|
|-14-14-15-------15-14---12-14-15-15-14-12--14-14-14-12-12-12-10-10-10-12-12-|
|----------------------------------------------------------------------------|

                      Forces us to stay
|--------------------------------------------------|finally...---------------|
|--------------------------------------------------|-------------------------|
|-12-10-10-10-9-9-9--10-10-10-9-9-9-7-7-7--6--7--9-|-6-7-9--6-7-9--14--------|
|--------------------------------------------------|-------------------------|

Riff 1 2x

|----------------------------------------------------------------------------|
|-9~----19-(Pull-over-fretboard)---------------------------------------------|
|----------------------------------------------------------------------------|
|----------------------------------------------------------------------------|

Riff 2 3x (First time played only with Bass)

|----------------------------------------------------------------------------|
|----------------------------------------------------------------------------|
|----------------------------------------------------------------------------|
|-2------5-5-5-5-------9-9-9-9---------10-10-10-10-9-9-9-9-7-7-7-7-----------|
|-2------5-5-5-5-------9-9-9-9---------10-10-10-10-9-9-9-9-7-7-7-7-----------|
|-0--0-0-3-3-3-3-0-0-0-7-7-7-7-0-0-0-0-8--8--8--8--7-7-7-7-5-5-5-5-----------|

Riff 3: Bass Plays E





Comments


Popular Manowar tabs & chords
Kings Of Metal 2 Bass Tabs
Manowar Bass Tabs
Williams Tale Bass Tabs
Warriors Of The World United Chords
Black Wind, Fire And Steel Tabs
Metal Warriors Tabs
Thor 1 Tabs
Warriors Of The World United 1 Tabs
Warrirors Of The World Tabs
Wheels Of Fire Tabs


Song lyrics



↑ Back to top | Tablatures and chords are parodies/interpretations of the original songs. You may use it for private study, scholarship, research or language learning purposes only
© 2014 AZChords.com Contact us | Privacy policy | DMCA | Add/correct tabs | Request tabs | Top 50 tabs