» » »

Manowar, Fighting The World Bass tabs (ver.1)

Artists:  A B C D E F G H I J K L M N O P Q R S T U V W X Y Z # 

Fighting The World Bass tabs (ver.1)

Manowar Tabs
Rating:
0/5 (0 votes)
Fighting The World lessons Tabs too difficult? Try these video lessons and learn fast
                Hi!


Welcome to my tablature. It´s "Fighting The world" from Manowar. It´s  a very easy song, 
I hope, that you will enjoy it like me. It´s good, if you play the Song with a hard (in 
case 3mm ) pic, because some sequences of the song are a bit harder. Ok.. so... let´s play!


Enjoy!
Bass4Ever
Rodario

____________________________________________________________________________

Standard Tuning: EADG

Intro: (First only Drums)

G|-------------------------------------------------------------------------|
D|-------------------------------------------------------------------------|
A|-------------------------------------------------------------------------|
E|-------------------------------------------------------------------------|

G|-------------------------------------------------------------------------|
D|-------------------------------------------------------------------------|
A|-10--9--10--9--10-9--7-7-7----10--9--10-9--7-7-7-7-7---------------------|
E|-------------------------------------------------------------------------|

then:
G|-------------------------------------------------------------------------|
D|-----------------------------------------7-------------------------------|
A|-10--9--10--9--10-9--7-7-7----10--9--10--0--------7----------------------|
E|--------------------------------------------------0----------------------|


Verse 1: (play it, when he says "Heavy Metal!"

(Fighting the World every single day... Fighting the World for the Right to play... 
Metal!* In my brain... Im´m fighting ...)

G|-------------------------------------------------------------------------|
D|-------------------------------------------------------------------------|
A|---------------------------------7---------------------------7-7-7-7-7-7-|
E|---------------------------------0---------------------------------------|

Refrain: (Fighting, fighting, fighting the World....)
( ~ means slide! in this case slide up!)
G|-------------------------------------------------------------------------|
D|-------------------------------------------------------------------------|
A|-10--9--10--9--10-9--5~7----10--9--10-9--5~7-7-7-7-7-7-7-7---------------|
E|-------------------------------------------------------------------------|

G|-------------------------------------------------------------------------|
D|---------------------------------------7---------------------------------|
A|-10--9--10--9--10-9--5~7-----10--9--10-0---------------------------------|
E|-------------------------------------------------------------------------|

G|-------------------------------------------------------------------------|
D|----------7----------------------------7---------------------------------|
A|-7-7-9-10---9-7-5~7-----------7-7-9-10---9-7-5~7-------------------------|
E|-------------------------------------------------------------------------|
( >>>> means slide down!)
G|-------------------------------------------------------------------------|
D|----------7--------------------------------------------------------------|
A|-7-7-9-10---9-7-5~7-----------7--7-5-3--15>>>>>3-2-0---------------------|
E|-----------------------------------------------------3-0-----------------|


Verse 2: (Now people keep asking if we gonna change...)

G|-------------------------------------------------------------------------|
D|-------------------------------------------------------------------------|
A|--7-7-7-7-7-7-7-7-7-7-7-7-7-7-7-7-7-7-7-7-7-7-7-7-7-7-7-7-7-7-7-7-7-7-7-7|
E|--0-0-0-0-0-0------------------------------------------------------------|
(I look into their eyes, tell´ em... NO WAY!*)
Play it, when he says NO WAY! then he sings: Stripes of a tiger...)
G|-------------------------------------------------------------------------|
D|-------------------------------------------------------------------------|
A|---7---7-7-7-7-7-7-7-7-7-7-7-7-7-7-7-7-7-7-7-7-7-7-7-7-7-7-7-7-7-7-7-7-7-|
E|---0---------------------------------------------------------------------|


Refrain: (Fighting, fighting, fighting the World....)
( ~ means slide! in this case slide up!)
G|-------------------------------------------------------------------------|
D|-------------------------------------------------------------------------|
A|-10--9--10--9--10-9--5~7----10--9--10-9--5~7-7-7-7-7-7-7-7---------------|
E|-------------------------------------------------------------------------|

G|-------------------------------------------------------------------------|
D|---------------------------------------7---------------------------------|
A|-10--9--10--9--10-9--5~7-----10--9--10-0---------------------------------|
E|-------------------------------------------------------------------------|

G|-------------------------------------------------------------------------|
D|----------7----------------------------7---------------------------------|
A|-7-7-9-10---9-7-5~7-----------7-7-9-10---9-7-5~7-------------------------|
E|-------------------------------------------------------------------------|
( >>>> means slide down!)
G|-------------------------------------------------------------------------|
D|----------7--------------------------------------------------------------|
A|-7-7-9-10---9-7-5~7-----------7--7-5-3--15>>>>>3-2-0---------------------|
E|-----------------------------------------------------3-0-----------------|

Bridge: play this part 3 times

G|-------------------------------------------------------------------------|
D|-------------------------------------------------------------------------|
A|---10-9-10-9-10-9-10-9-7-------------------------------------------------|
E|--------------------------0000-0----0000-0-------------------------------|

then, last time:

G|-------------------------------------------------------------------------|
D|---------------------9-9-9-9-9-------------------------------------------|
A|---10-9-10-9-10-9-10-----------------------------------------------------|
E|-------------------------------------------------------------------------|

Verse 3: See my brother standing by my side...)

G|-------------------------------------------------------------------------|
D|-------------------------------------------------------------------------|
A|-7-7-7-7-7-7-7-7-7-7-7-7-7-7-7-7-7-7-7-7-7-7-7-7-7-7-7-7-7-7-7-7-7-7-7-7-|
E|-------------------------------------------------------------------------|


Refrain: (Fighting, fighting, fighting the World....)
( ~ means slide! in this case slide up!)
G|-------------------------------------------------------------------------|
D|-------------------------------------------------------------------------|
A|-10--9--10--9--10-9--5~7----10--9--10-9--5~7-7-7-7-7-7-7-7---------------|
E|-------------------------------------------------------------------------|

G|-------------------------------------------------------------------------|
D|---------------------------------------7---------------------------------|
A|-10--9--10--9--10-9--5~7-----10--9--10-0---------------------------------|
E|-------------------------------------------------------------------------|


Bridge 2: (only Drums )

(Fight! Fighting The World! Fight!Fighting The World! ...)

G|-------------------------------------------------------------------------|
D|-------------------------------------------------------------------------|
A|-------------------------------------------------------------------------|
E|-------------------------------------------------------------------------|

Refrain: (Fighting, fighting, fighting the World....)
( ~ means slide! in this case slide up!)
G|-------------------------------------------------------------------------|
D|-------------------------------------------------------------------------|
A|-10--9--10--9--10-9--5~7----10--9--10-9--5~7-7-7-7-7-7-7-7---------------|
E|-------------------------------------------------------------------------|

G|-------------------------------------------------------------------------|
D|---------------------------------------7---------------------------------|
A|-10--9--10--9--10-9--5~7-----10--9--10-0---------------------------------|
E|-------------------------------------------------------------------------|

G|-------------------------------------------------------------------------|
D|----------7----------------------------7---------------------------------|
A|-7-7-9-10---9-7-5~7-----------7-7-9-10---9-7-5~7-------------------------|
E|-------------------------------------------------------------------------|
( >>>> means slide down!)
G|-------------------------------------------------------------------------|
D|----------7--------------------------------------------------------------|
A|-7-7-9-10---9-7-5~7-----------7--7-5-3--15>>>>>3-2-0---------------------|
E|-----------------------------------------------------3-0-----------------|

G|-------------------------------------------------------------------------|
D|----------7----------------------------7---------------------------------|
A|-7-7-9-10---9-7-5~7-----------7-7-9-10---9-7-5~7-------------------------|
E|-------------------------------------------------------------------------|
( >>>> means slide down!)
G|-------------------------------------------------------------------------|
D|----------7--------------------------------------------------------------|
A|-7-7-9-10---9-7-5~7-----------7--7-5-3--15>>>>>3-2-0---------------------|
E|-----------------------------------------------------3-0-----------------|

G|-------------------------------------------------------------------------|
D|----------7----------------------------7---------------------------------|
A|-7-7-9-10---9-7-5~7-----------7-7-9-10---9-7-5~7-------------------------|
E|-------------------------------------------------------------------------|
( >>>> means slide down!)
G|-------------------------------------------------------------------------|
D|----------7--------------------------------------------------------------|
A|-7-7-9-10---9-7-5~7-----------7--7-5-3--15>>>>>3-2-0---------------------|
E|-----------------------------------------------------3-0-----------------|

Ok... so, I hope you liked it!

Written by Rodario
29 June 2007
            
Submit corrections

comments powered by Disqus
↑ Back to top | Manowar Bass for Fighting The World. Lyrics for acoustic guitar and electric guitar. Tablatures and chords are parodies/interpretations of the original songs. You may use it for private study, scholarship, research or language learning purposes only