» » »

Manowar, Death Tone Battle Hyms Tabs (ver.1)

Artists:  A B C D E F G H I J K L M N O P Q R S T U V W X Y Z # 

Death Tone Battle Hyms Tabs (ver.1)

Manowar Tabs
 Rating:
4.3/5 (6 votes)
Death Tone Battle Hyms lessons Tabs too difficult? Try these video lessons and learn fast
                Artist-Manowar 
Song-Death Tone (Battle Hyms)

Standard Tuning


Riff 1 5x
|----------------------------------------------------------------------------|
|----------------------------------------------------------------------------|
|--------------------------------------------------------------------7---7---|
|--------------------------------------------------------------------7---7---|
|----------------7---------------------------7------------7----------5---5---|
|\0--3--0--5--0----0--0--9--0--10--0--9--0-----3--0--5--0----0--9--0---------|

Riff 2
|----------------------------------------------------------------------------|
|----------------------------------------------------------------------------|
|--------------------------------------------------------------------5-------|
|-7--7--7--7-7--7-----5--7-5----7--7--7--7--7--7---7--7------5-7-5-----7-----|
|-7--7--7--7-7--7-5h7--------7--7--7--7--7--7--7---7--7--5h7-------7---------|
|-5--5--5--5-5--5---------------5--5--5--5--5--5---5--5----------------------|

Play Riff 1

Play Riff 2

Play Riff 1

Play Pre-Chorus C C C C D D D D

Chorus
|-2x------------------------------|1x----------------------------------------|
|---------------------------------|------------------------------------------|
|--------------------------7---7--|-5-5-5-5-5--6-6-6-6-6-6-------------------|
|-------5-/7----5---5-5----7---7--|-5-5-5-5-5--6-6-6-6-6-6---5--4--2---------|
|-------5-/7----5---5-5----5---5--|-3-3-3-3-3--4-4-4-4-4-4---5--4--2---------|
|-0--0--3-/5----3---3-3--0--------|--------------------------3--2--0---------|

Play Riff 1 2x

Play Riff 2

Play Riff 1

Play Riff 2

Play Riff 1

Play Pre-Chorus

Play Chorus

Play Riff 1 2x

Solo (Guitar 2 Plays Riff 2, Riff 1, Riff 2, Riff 1, Pre-Chorus, Chorus,
      Riff 1 3x)
|----------------------------------------------------------------------------|
|----------------------------------------------------------------------------|
|----------------------------------------------------9(11)-9(11)-9(11)-9(11)-|
|-/10-10-10-10-7---10-10-10-10-7--10-10-10-10-10-7---------------------------|
|----------------------------------------------------------------------------|
|----------------------------------------------------------------------------|

|-----------------------------------------------|-12-----12------------------|
|-----------------------------------------------|-15(17)-15(17)-15(17)-br-12-|
|-9---11(13)--13(14)--11(13)--9--11(13)-9-11-9--|----------------------------|
|-----------------------------------------------|----------------------------|
|-----------------------------------------------|----------------------------|
|-----------------------------------------------|----------------------------|

|------------------15-----------------12-------------------------------------|
|-15-15(17)-15(17)----15(17)-15(17)------15-12-15-12----12-------------------|
|----------------------------------------------------14----14-12-14-12----12-|
|----------------------------------------------------------------------14----|
|----------------------------------------------------------------------------|
|----------------------------------------------------------------------------|

|----------------------------------------------------------------------------|
|----------------------------------------------------------------------------|
|-------------------------------------------------12-14-12h14p12h14p12h14p12-|
|-14-12-14-12----12-------------------12-14-12-14----------------------------|
|-------------14----14-12-14-12-14-12----------------------------------------|
|----------------------------------------------------------------------------|

|-------17-16--17(19)--15----15----15-----19(21)-19(21)-19(21)---------------|
|-17-15-------------------17----17----17-------------------------------------|
|----------------------------------------------------------------------------|
|----------------------------------------------------------------------------|
|----------------------------------------------------------------------------|
|----------------------------------------------------------------------------|

|----------------------------------------------------------------------------|
|----------------------------------------------------------------------------|
|--9--7--9----9--7--9--------------------------------------------------------|
|-----------------------9--7--9--------4h5p4h5p4h5p4h5-/17-------------------|
|-------------------------------7--------------------------------------------|
|----------------------------------------------------------------------------|

|--------12-------12---------------------------------------------------------|
|-15(17)----15-12----15-12----12---------------------------------------------|
|--------------------------14----14-12-14-12----14-12----------12-14-12------|
|--------------------------------------------14-------14-12-14----------14-12|
|----------------------------------------------------------------------------|
|----------------------------------------------------------------------------|

|-----------------------------|--------12------------------------------------|
|-----------------------------|-15(17)----15-12----15-12----12---------------|
|-12--------------------------|-----------------14-------14----14-12-14-12---|
|----14-12----12--------------|--------------------------------------------14|
|----------14----14-12--------|----------------------------------------------|
|----------------------15-12~-|----------------------------------------------|

|---------------------|------------------------------------------------------|
|---------------------|------------------------------------------------------|
|-------14(16)-br-12--|------------------------------------------------------|
|-14-14---------------|---8--8--9--11-----13-13-14--16----5--4--2------------|
|---------------------|-----------------------------------5--4--2---7~-------|
|---------------------|-----------------------------------3--2--0------------|

Play Riff 1 2x

Outro is just strumming E
            
Submit corrections

comments powered by Disqus
↑ Back to top | Manowar Tabs for Death Tone Battle Hyms. Lyrics for acoustic guitar and electric guitar. Tablatures and chords are parodies/interpretations of the original songs. You may use it for private study, scholarship, research or language learning purposes only