» » »

Dark Avenger Bass tabs (ver.1)

Artists:  A B C D E F G H I J K L M N O P Q R S T U V W X Y Z # 

Dark Avenger Bass tabs (ver.1)

Manowar
Rating:
0/5 (0 votes)

Hard to play? Try these video lessons and learn fast.
                Intro

|---------------|-------------------|
|-5h7-----7-----|-5h7-7-----7-7-----|
|------0-----0--|--------0-------0--|
|---------------|-------------------|


|---------------|-------------------|
|-5h7-----7-----|-5h7-7-----7---7---|
|------0-----0--|--------0----0---0-|
|---------------|-------------------|

|---------------|-------------------|
|-5h7-----7-----|-5h7-7-----7-7-----|
|------0-----0--|--------0-------0--|
|---------------|-------------------|
						Dive
|--------------|----------------------------|------|
|-5h7-----7----|------------------17-19/21--|--14--|
|------0-----0-|-/19-19-19\17-19------------|--12--|
|--------------|----------------------------|--12--|

|----------------------------|
|-----------------------5----|
|-3--3--3--3--3--3-3-3----6--|
|----------------------------|

  Bend
|----------------------|
|-----------------5----|
|-3--3--3--3-3-3----6--|
|----------------------|

|----------------------------|
|-----------------------5----|
|-3--3--3--3--3--3-3-3----6--|
|----------------------------|

|-----------------|
|-----------------|
|-3--3--3-3-3--3/-|
|-----------------|

verse1

|--------------|---------------|x4
|--------------|-----------2---|
|-0--0----0--0-|-0--0-0-0----3-|
|-------3------|---------------|

Chorus

|------------------|-------------|x4
|------------------|-------------|
|-----------10-9-7-|-------------|
|-0-0-0-0-0--------|-7--7-7-7--7-|

verse2

|--------------|---------------|x4
|--------------|-----------2---|
|-0--0----0--0-|-0--0-0-0----3-|
|-------3------|---------------|

|----------------------------|
|-----------------------5----|
|-3--3--3--3--3--3-3-3----6--|
|----------------------------|

  Bend
|----------------------|
|-----------------5----|
|-3--3--3--3-3-3----6--|
|----------------------|

|----------------------------|
|-----------------------5----|
|-3--3--3--3--3--3-3-3----6--|
|----------------------------|

|-----------------|
|-----------------|
|-3--3--3-3-3--3/-|
|-----------------|

|--------------|---------------|x4
|--------------|-----------2---|
|-0--0----0--0-|-0--0-0-0----3-|
|-------3------|---------------|

Chorus2

|------------------|-------------|x4
|------------------|-------------|
|-----------10-9-7-|-------------|
|-0-0-0-0-0--------|-7--7-7-7--7-|
            
Hard to play? Try these video lessons and learn fast. | Correct




comments powered by Disqus
↑ Back to top | Tablatures and chords are parodies/interpretations of the original songs. You may use it for private study, scholarship, research or language learning purposes only