» » »

Manowar, Call To Arms Tabs (ver.1)

Artists:  A B C D E F G H I J K L M N O P Q R S T U V W X Y Z # 

Call To Arms Tabs (ver.1)

Manowar Tabs
 Rating:
4/5 (5 votes)
Call To Arms lessons Tabs too difficult? Try these video lessons and learn fast
1
                |-------------------------------------------------------------------||
|-------------------------------------------------------------------||
|---------------------------------------------10--------------------||
|--8--------8--------8-10-12--8--------8--12--8---------------------||
|--6--6-6-6-6--6-6-6-6-8--10--6--6-6-6-6--10------------------------||
|-------------------------------------------------------------------||

|--------------------------------------------------------------------||
|--------------------------------------------------------------------||
|----------------------------------------10-12-14--------------------||
|--8--------8--------8-10-12-14-10--------8-10-12--------------------||
|--6--6-6-6-6--6-6-6-6-8--10-12-8--8-8-8-----------------------------||
|--------------------------------------------------------------------||

|--------------------------------------------------||
|--------------------------------------------------||
|--------------------------------------------------||
|-8--------10--------------------------------------||
|-6----6-6--8--------------------------------------||
|--------------------------------------------------||
rapeat 2x
E|--------------------------------------------------||
B|--------------------------------------------------||
G|--------------------------------------------------||
D|--------------------------------------------------||
A|--5-5---------5-5---------5-5---------3-3---------||
E|--3-3-3-3-3-3-3-3-3-3-3-3-3-3-3-3-3-3-1-1---------||
   When they see us they see us....
E|--------------------------------------------------||
B|--------------------------------------------------||
G|--------------------------------------------------||
D|--------------------------------------------------||
A|--5-5-5-5-5-5-5-5-5-5-5-5-5-5-5-5-5---------------||
E|--3-3-3-3-3-3-3-3-3-3-3-3-3-3-3-3-3---------------||
 So long did we wait, now, we are home.
E|---------------------------------------------||
B|---------------------------------------------||
G/---------------------------------------------||
D|---------------------------------------------||
A|--3-3-3-3-3-3-3-3-3-5-5-5-5-5-5-5-5----------||
E|--1-1-1-1-1-1-1-1-1-3-3-3-3-3-3-3-3----------||


E|--------------------------------------------------||
B|--------------------------------------------------||
G|--------------------------------------------------||
D|--------------------------------------------------||
A|--5-5---------5-5---------5-5---------3-3---------||
E|--3-3-3-3-3-3-3-3-3-3-3-3-3-3-3-3-3-3-1-1---------||

 now we will fight for the kingdom, fighting with steel
E|-------------------------------------------------------------------||
B|-------------------------------------------------------------------||
G|-------------------------------------------------------------------||
D|-------------------------------------------------------------------||
A|---3--3---5-5---------5-5---------5-5---------5-3-3----------------||
E|---1--1---3-3-3-3-3-3-3-3-3-3-3-3-3-3-3-3-3-3-3-1-1----------------||
   kill all of them, their blood is our seal
E|-------------------------------------------------------------------||
B|-------------------------------------------------------------------||
G|-------------------------------------------------------------------||
D|--------------------------------------3----------------------------||
A|--5-5---------5-5---------5-5---------1-3--------------------------||
E|--3-3-3-3-3-3-3-3-3-3-3-3-3-3-3-3-3-3---1--------------------------||
 fight till the last, till the enemy is dead
E|-------------------------------------------------------------------||
B|-------------------------------------------------------------------||
G|-------------------------------------------------------------------||
D|-------------------------------------------------------------------||
A|-5-5---------5-5---------5-5---------5-3---------------------------||
E|-3-3-3-3-3-3-3-3-3-3-3-3-3-3-3-3-3-3-3-1---------------------------||
  ride through their blood that we gladly have shred
E|-------------------------------------------------------------------||
B|-------------------------------------------------------------------||
G|-------------------------------------------------------------------||
D|--------------------------------------3----------------------------||
A|--3-3---------3-3---------3-3---------1-3--------------------------||
E|--1-1-1-1-1-1-1-1-1-1-1-1-1-1-1-1-1-1---1----------
I now issue the call…..................................... To be free once again
E
B-------------------------------------------------------------------------------|
G-------------------------------------------------------------------------------|
D-------------------------------------------------------------------------------|
A--3--3---5-5-5-5-5-5-5-5-5-5-5-5-5-5----333-3-3-3-3-3-3-3-3-3-3-3-3-3-3-3-3----|
E--1--1---3-3-3-3-3-3-3-3-3-3-3-3-3-3----111-1-1-1-1-1-1-1-1-1-1-1-1-1-1-1-1----|

tonight we will win
E-------------------------------------------------------------------------------|
B-------------------------------------------------------------------------------|
G-------------------------------------------------------------------------------|
D-------------------------------------------------------------------------------|
A--55-----------55-----------55----------3--3-----------------------------------|
E--33-3-3-3-3---333--3-3-3---333-3-3-3---1--1-----------------------------------|

Repeat this part ( I now issue - tonight we will win)

Chorus:

Fight for the kingdom bound for glory Armed with a heart of steel
E--------------------------------------------------------------------------------|
B--------------------------------------------------------------------------------|
G--------------------------------------------------------------------------------|
D--8------------8-----------8--10---12------8-----------8--10--12-------12--10---|
A--6----6-6-6---6----6-6-6--6---8---10------6----6-6-6--6---8---10-------10---8--|
E--------------------------------------------------------------------------------|

I swear by the brothers who stand before me


E---------------------------------------------------------------------------------|
B---------------------------------------------------------------------------------|
G---------------------------------------------------------------------------------|
D--8------------8-----------8--10---12--------------------------------------------|
A--6----6-6-6---6----6-6-6--6---8---10--------------------------------------------|
E---------------------------------------------------------------------------------|

To no man shall I kneel
E-----------------------------------------------------------------------------------|
B-----------------------------------------------------------------------------------|
G--10-----------10--12---14---------------------------------------------------------|
D---8----8-8-8--8---10---12---------------------------------------------------------|
A-----------------------------------------------------------------------------------|
E-----------------------------------------------------------------------------------|

Then blood is upon my steel
E-----------------------------------------------------------------------------------|
B-----------------------------------------------------------------------------------|
G-----------------------------------------------------------------------------------|
D--8-----------8--10---12-------------12--10----------------------------------------|
A--6----6-6-6--6---8---10-------------10---8----------------------------------------|
E-----------------------------------------------------------------------------------|

solo:Solo is not really that good, it's much easier to create your own.
            
Submit corrections

comments powered by Disqus
↑ Back to top | Manowar Tabs for Call To Arms. Lyrics for acoustic guitar and electric guitar. 1 Tablatures and chords are parodies/interpretations of the original songs. You may use it for private study, scholarship, research or language learning purposes only