>
 >
They Dont Make Em Like They Used To

They Dont Make Em Like They Used To Guitar Tabs

Man Overboard - They Dont Make Em Like They Used To chords, tabs, tablatures, lyrics

Guitar lessons | Add/correct | Request | Top 50 tabs Artists:  A B C D E F G H I J K L M N O P Q R S T U V W X Y Z 0-9

They Dont Make Em Like They Used To Guitar Tabs – Man Overboard

CD, Sheet music, Poster

Do you like They Dont Make Em Like They Used To? Share with your friends now
Tabs
------------------------------------------------------------------------------
        THEY DON'T MAKE THEM LIKE THEY USED TO - MAN OVERBOARD
------------------------------------------------------------------------------


Tuning: Eb (Half Step Down)

OPENING RIFF (0:00)

   (x2)
eb|--------------------------------------------------------------------------|
Bb|--9-----9-----11-----11-----9-----9-----11-----13--14---------------------|
Gb|-----8-----8------8------8-----8-----8------8-----------------------------|
Db|--------------------------------------------------------------------------|
Ab|--------------------------------------------------------------------------|
Eb|--------------------------------------------------------------------------|

BAND KICKS IN (0:07)
 
   LEAD (x2)
eb|--------------------------------------------------------------------------|
Bb|--9----9-----11----11-----9-----9-----11-----13--14-----------------------|
Gb|-----8----8------8-----8-----8-----8------8-------------------------------|
Db|--------------------------------------------------------------------------|
Ab|--------------------------------------------------------------------------|
Eb|--------------------------------------------------------------------------|

eb|--------------------------------------------------------------------------|
Bb|--9----9-----11----11-----9-----9-----------------------------------------|
Gb|-----8----8------8-----8-----8-----8--------------------------------------|
Db|--------------------------------------------------------------------------|
Ab|--------------------------------------------------------------------------|
Eb|--------------------------------------------------------------------------|

   RHYTHM (x1)
eb|--------------------------------------------------------------------------|
Bb|--------------------------------------------------------------------------|
Gb|--10-10---10-6-6---6-------6/8\6---8-10-10---10-6-6---6-------6-/-8-------|
Db|--10-10---10-6-6---6-6-6---6/8\6---8-10-10---10-6-6---6-6-6---6-/-8-------|
Ab|---8--8----8-4-4---4-6-6---4/6\4---6--8--8----8-4-4---4-6-6---4-/-6-------|
Eb|---------------------4-4--------------------------------4-4---------------|

eb|--------------------------------------------------------------------------|
Bb|--------------------------------------------------------------------------|
Gb|--10-10---10-6-6---6-------6/8\6---8-10-10---10-6-6---6-------8-8-8-------|
Db|--10-10---10-6-6---6-6-6---6/8\6---8-10-10---10-6-6---6-6-6---8-8-8  RING |
Ab|---8--8----8-4-4---4-6-6---4/6\4---6--8--8----8-4-4---4-6-6---6-6-6-------|
Eb|---------------------4-4--------------------------------4-4---------------|

VERSE ONE (0:21)

   GUITAR ONE (x4) 
eb|--------------------------------------------------------------------------|
Bb|--------------------------------------------------------------------------|
Gb|--8-----------------10-----------------6----------------------------------|
Db|--8--  LET RING  ---10-- LET RING  ----6--  LET RING  --------------------|
Ab|--6------------------8-----------------4----------------------------------|
Eb|--------------------------------------------------------------------------|
  1   I felt like a   runaway when I      stood outside Jim's house
  2   Maybe with all    overreacting or   maybe you save me
  3   If I die          If I die          Waiting for my ship to come
  4   I'll just hope    comes in          sorry for wasting your time

   GTR TWO  (x2) - Comes in at 0:35 - Keep it VERY gentle
eb|--------|--------------------------------------------------------------------------|
Bb|--------|--------------------------------------------------------------------------|
Gb|--6-6-6-|-8-8-8-8-8-8-8-8-10-10-10-10-10-10-10-10-6-6-6-6-6-6-6-6-6-6-6-6-6-6-6-6--|
Db|--6-6-6-|-8-8-8-8-8-8-8-8-10-10-10-10-10-10-10-10-6-6-6-6-6-6-6-6-6-6-6-6-6-6-6-6--|
Ab|--4-4-4-|-6-6-6-6-6-6-6-6--8--8--8--8--8--8--8--8-4-4-4-4-4-4-4-4-4-4-4-4-4-4-4-4--|
Eb|--------|--------------------------------------------------------------------------|
             P.M--------------------------------------------------------------------|

PRECHORUS (0:50)

   (x3 for GUITAR ONE)                 (x1 for GUITAR TWO)
eb|-----------------------------------|----------------------------------------|
Bb|-----------------------------------|----------------------------------------|
Gb|-----------------------------------|------10--------------------------------|
Db|-----------------------------------|------10-  LET RING  -------------------|
Ab|--8-8---8-4-4---4---------6-6---6--|--8-8--8--------------------------------|
Eb|------------------4-4---4----------|----------------------------------------|
     P.M ---------------------------|    P.M
  1  She finished the book            3  Break through
  2  Lonely reading comics
  3  Break through any window

   (x1)
eb|------------------------------------------|
Bb|------------------------------------------|
Gb|------------------------------------------|
Db|--10-10-10-10--6-6-6-6-----------8-8-8-8--|
Ab|---8--8--8--8--4-4-4-4--6-6-6-6--6-6-6-6--|
Eb|------------------------4-4-4-4-----------|
  1  Run through any      thinking I should

CHORUS ONE (1:04)

   (x4)
eb|--------------------------------------------------------------------------|
Bb|--------------------------------------------------------------------------|
Gb|--10-10-----------6-6-------------------------8-8-------------------------|
Db|--10-10--x-x-x-x--6-6--x-x-x-x--6-6--x-x-x-x--8-8--x-x-x-x----------------|
Ab|---8--8--x-x-x-x--4-4--x-x-x-x--6-6--x-x-x-x--6-6--x-x-x-x----------------|
Eb|---------x-x-x-x-------x-x-x-x--4-4--x-x-x-x-------x-x-x-x----------------|
  1  Just cut all my losses and resign to the  truth
  2  Whole time     searching     searching  for you
  3  I discovered something       never      ignore
  4  I     now      know what I'm here  for

BACK TO INTRO (1:18)

   RHYTHM (x1)
eb|--------------------------------------------------------------------------|
Bb|--------------------------------------------------------------------------|
Gb|--10-10---10-6-6---6-------6/8\6---8-10-10---10-6-6---6-------8-8-8-------|
Db|--10-10---10-6-6---6-6-6---6/8\6---8-10-10---10-6-6---6-6-6---8-8-8  RING |
Ab|---8--8----8-4-4---4-6-6---4/6\4---6--8--8----8-4-4---4-6-6---6-6-6-------|
Eb|---------------------4-4--------------------------------4-4---------------|

   LEAD (x1)
eb|--------------------------------------------------------------------------|
Bb|--9----9-----11----11-----9-----9-----11-----13--14-----------------------|
Gb|-----8----8------8-----8-----8-----8------8-------------------------------|
Db|--------------------------------------------------------------------------|
Ab|--------------------------------------------------------------------------|
Eb|--------------------------------------------------------------------------|

eb|--------------------------------------------------------------------------|
Bb|--9----9-----11----11-----9-----9-----------------------------------------|
Gb|-----8----8------8-----8-----8-----8--------------------------------------|
Db|--------------------------------------------------------------------------|
Ab|--------------------------------------------------------------------------|
Eb|--------------------------------------------------------------------------|

VERSE TWO (1:26)

   GUITAR ONE (x4) 
eb|--------------------------------------------------------------------------|
Bb|--------------------------------------------------------------------------|
Gb|--8-----------------10-----------------6----------------------------------|
Db|--8--  LET RING  ---10-- LET RING  ----6--  LET RING  --------------------|
Ab|--6------------------8-----------------4----------------------------------|
Eb|--------------------------------------------------------------------------|
  1   Last night  slept alright turned down the boy
  2   Never expected    back in that      maybe she's crazy
  3   If I die          If I die          Waiting for my ship to come
  4   I'll just hope    comes in          sorry for wasting your time

   GTR TWO (x3) - Comes in at 1:33
eb|--------------------------------------------------------------------------|
Bb|--------------------------------------------------------------------------|
Gb|--8-8-8-8-8-8-8-8-10-10-10-10-10-10-10-10-6-6-6-6-6-6-6-6-6-6-6-6-6-6-6-6-|
Db|--8-8-8-8-8-8-8-8-10-10-10-10-10-10-10-10-6-6-6-6-6-6-6-6-6-6-6-6-6-6-6-6-|
Ab|--6-6-6-6-6-6-6-6--8--8--8--8--8--8--8--8-4-4-4-4-4-4-4-4-4-4-4-4-4-4-4-4-|
Eb|--------------------------------------------------------------------------|
     P.M--------------------------------------------------------------------|

CHORUS TWO (1:04)

   (x4)
eb|--------------------------------------------------------------------------|
Bb|--------------------------------------------------------------------------|
Gb|--10-10-----------6-6-------------------------8-8-------------------------|
Db|--10-10--x-x-x-x--6-6--x-x-x-x--6-6--x-x-x-x--8-8--x-x-x-x----------------|
Ab|---8--8--x-x-x-x--4-4--x-x-x-x--6-6--x-x-x-x--6-6--x-x-x-x----------------|
Eb|---------x-x-x-x-------x-x-x-x--4-4--x-x-x-x-------x-x-x-x----------------|
  1  Just cut all my losses and resign to the  truth
  2  Whole time     searching     searching  for you
  3  I discovered something       never      ignore

   (x1)
eb|--------------------------------------------------------------------------|
Bb|--------------------------------------------------------------------------|
Gb|--10-10-10-10--6-6-6-6-----------8-8-8-8----------------------------------|
Db|--10-10-10-10--6-6-6-6--6-6-6-6--8-8-8-8----------------------------------|
Ab|---8--8--8--8--4-4-4-4--6-6-6-6--6-6-6-6----------------------------------|
Eb|------------------------4-4-4-4-------------------------------------------|
  1     I now      know   I'm here   for

BRIDGE (2:10)

   (x1)
eb|--------------------------------------------------------------------------|
Bb|--------------------------------------------------------------------------|
Gb|-----------------------------------8-8-8-8-8-8-8-8-8-8-8-8-8-8-8-8--------|
Db|--6-6-6-6-6-6-6-6-6-6-6-6-6-6-6-6--8-8-8-8-8-8-8-8-8-8-8-8-8-8-8-8--------|
Ab|--6-6-6-6-6-6-6-6-6-6-6-6-6-6-6-6--6-6-6-6-6-6-6-6-6-6-6-6-6-6-6-6--------|
Eb|--4-4-4-4-4-4-4-4-4-4-4-4-4-4-4-4-----------------------------------------|
  1      I had to write a song          They don't make girls like

eb|----------------------------------------------------------------------------------|
Bb|----------------------------------------------------------------------------------|
Gb|--10-10-10-10-10-10-10-10-10-10-10-10-10-10-10-10-6-6-6-6-6-6-6-6-6-6-6-6-6-6-6-6-|
Db|--10-10-10-10-10-10-10-10-10-10-10-10-10-10-10-10-6-6-6-6-6-6-6-6-6-6-6-6-6-6-6-6-|
Ab|---8--8--8--8--8--8--8--8--8--8--8--8--8--8--8--8-4-4-4-4-4-4-4-4-4-4-4-4-4-4-4-4-|
Eb|----------------------------------------------------------------------------------|
  1     They don't make kids like you anymore         so let's go, get it while

eb|--------------------------------------------------------------------------|
Bb|--------------------------------------------------------------------------|
Gb|-----------------------------------8-8-8-8-8-8-8-8-8-8-8-8-8-8-8-8--------|
Db|--6-6-6-6-6-6-6-6-6-6-6-6-6-6-6-6--8-8-8-8-8-8-8-8-8-8-8-8-8-8-8-8--------|
Ab|--6-6-6-6-6-6-6-6-6-6-6-6-6-6-6-6--6-6-6-6-6-6-6-6-6-6-6-6-6-6-6-6--------|
Eb|--4-4-4-4-4-4-4-4-4-4-4-4-4-4-4-4-----------------------------------------|
  1      I had to write a song          They don't make girls like

eb|----------------------------------------------------------------------------------|
Bb|----------------------------------------------------------------------------------|
Gb|--10-10-10-10-10-10-10-10-10-10-10-10-10-10-10-10-6-6-6-6-6-6-6-6-6-6-6-6-6-6-6-6-|
Db|--10-10-10-10-10-10-10-10-10-10-10-10-10-10-10-10-6-6-6-6-6-6-6-6-6-6-6-6-6-6-6-6-|
Ab|---8--8--8--8--8--8--8--8--8--8--8--8--8--8--8--8-4-4-4-4-4-4-4-4-4-4-4-4-4-4-4-4-|
Eb|----------------------------------------------------------------------------------|
                                                     P.M----------------------------|
  1     They don't make kids like you anymore         so let's go, get it while it's

OUTRO (2:38)

   RHYTHM (x1)  
eb|--------------------------------------------------------------------------|
Bb|--------------------------------------------------------------------------|
Gb|--10-10---10-6-6---6-------6/8\6---8-10-10---10-6-6---6-------6-/-8-------|
Db|--10-10---10-6-6---6-6-6---6/8\6---8-10-10---10-6-6---6-6-6---6-/-8-------|
Ab|---8--8----8-4-4---4-6-6---4/6\4---6--8--8----8-4-4---4-6-6---4-/-6-------|
Eb|---------------------4-4--------------------------------4-4---------------|
  1   good             Get it while it's good        Get it while it's 

eb|--------------------------------------------------------------------------|
Bb|--------------------------------------------------------------------------|
Gb|--10-10---10-6-6---6-------6/8\6---8-10-10---10-6-6---6-------8----8------|
Db|--10-10---10-6-6---6-6-6---6/8\6---8-10-10---10-6-6---6-6-6---8----8------|
Ab|---8--8----8-4-4---4-6-6---4/6\4---6--8--8----8-4-4---4-6-6---6----6------|
Eb|---------------------4-4--------------------------------4-4---------------|
  1             good

   LEAD (x2)
eb|--------------------------------------------------------------------------|
Bb|--9----9-----11----11-----9-----9-----11-----13--14-----------------------|
Gb|-----8----8------8-----8-----8-----8------8-------------------------------|
Db|--------------------------------------------------------------------------|
Ab|--------------------------------------------------------------------------|
Eb|--------------------------------------------------------------------------|

eb|--------------------------------------------------------------------------|
Bb|--9----9-----11----11-----9-----9-----------------------------------------|
Gb|-----8----8------8-----8-----8-----8--------------------------8----8------|
Db|--------------------------------------------------------------8----8------|
Ab|--------------------------------------------------------------6----6------|
Eb|--------------------------------------------------------------------------|





Comments


Popular Man Overboard tabs & chords
Al Sharpton Bass Tabs
Love Your Friends, Die Laughing Chords
Montrose 1 Chords
Montrose 2 Chords
Spunn Chords
Al Sharpton Tabs
Night Feelings Tabs
Swan Dive Tabs
Where I Left You Tabs
Montrose Ukulele


Song lyrics



↑ Back to top | Tablatures and chords are parodies/interpretations of the original songs. You may use it for private study, scholarship, research or language learning purposes only
© 2014 AZChords.com Contact us | Privacy policy | DMCA | Add/correct tabs | Request tabs | Top 50 tabs