» » »

Man Overboard, The Absolute Worst Bass tabs (ver.1)

Artists:  A B C D E F G H I J K L M N O P Q R S T U V W X Y Z # 

The Absolute Worst Bass tabs (ver.1)

Man Overboard Tabs
 Rating:
4/5 (4 votes)
The Absolute Worst lessons Tabs too difficult? Try these video lessons and learn fast
                Man Overboard
The Absolute Worst-Single

Intro
Gb----------------------------------|
Db----------------------------------|
Ab-55555555--------22222222---------|
Eb---------00000000--------33333333-|
                                       x2
Verse

Gb-------------------------------------------|
Db-------------------------------------------|
Ab-5555555555555555-22222222/1010101010101010|
Eb-------------------------------------------|

Gb-----------------------------------|
Db-----------------------------------|
Ab-5555555555555555-22222222---------|
Eb--------------------------33333333-|

Pre-Chorus

Gb-------------------------------------|
Db-------------------------------------|
Ab-5-5-5-5-5-5-5-5-2-2-2-2/10-10-10-10-|
Eb-------------------------------------|

Gb----------------------------------|
Db----------------------------------|
Ab-5-5-5-5-5-5-5-5------------------|
Eb----------------00000000-33333333-|

Chorus

Gb-----------------------------------|
Db-----------------------------------|
Ab-5555555555555555-22222222---------|
Eb--------------------------33333333-|

Gb-----------------------------------|
Db-----------------------------------|
Ab-5555555555555555-22222222---------|
Eb--------------------------3-3--3-3-|

Post-Chorus

Gb-----------------------------------|
Db-----------------------------------|
Ab-55555555---------22222222---------|
Eb----------00000000--------33333333-|
                                       x2
Verse

Gb-------------------------------------------|
Db-------------------------------------------|
Ab-5555555555555555-22222222/1010101010101010|
Eb-------------------------------------------|

Gb-----------------------------------|
Db-----------------------------------|
Ab-5555555555555555-22222222---------|
Eb--------------------------33333333-|

Pre-Chorus

Gb-------------------------------------|
Db-------------------------------------|
Ab-5-5-5-5-5-5-5-5-2-2-2-2/10-10-10-10-|
Eb-------------------------------------|

Gb----------------------------------|
Db----------------------------------|
Ab-5-5-5-5-5-5-5-5------------------|
Eb----------------00000000-33333333-|

Chorus

Gb-----------------------------------|
Db-----------------------------------|
Ab-5555555555555555-22222222---------|
Eb--------------------------33333333-|

Gb-----------------------------------|
Db-----------------------------------|
Ab-5555555555555555-22222222---------|
Eb--------------------------3-3--3-3-|

Bridge

Gb------------------|
Db-----------9------|
Ab-5----7--------10-|
Eb------------------|
                    x2

Pre-Chorus

Gb-----------------------------------|
Db-----------------------------------|
Ab-55555555---------22222222---------|
Eb----------00000000--------33333333-|
                                     x2

Chorus

Gb-----------------------------------|
Db-----------------------------------|
Ab-5555555555555555-22222222---------|
Eb--------------------------33333333-|

Gb-----------------------------------|
Db-----------------------------------|
Ab-5555555555555555-22222222---------|
Eb--------------------------3-3--3-3-|

Gb-----------------------------------|
Db-----------------------------------|
Ab-5555555555555555-22222222---------|
Eb--------------------------33333333-|

Gb-----------------------------------|
Db-----------------------------------|
Ab-5555555555555555-22222222---------|
Eb--------------------------33333333-|

Gb-------|
Db-------|
Ab-5-5-5-|
Eb-------|
            
Submit corrections

comments powered by Disqus
↑ Back to top | Man Overboard Bass for The Absolute Worst. Lyrics for acoustic guitar and electric guitar. Tablatures and chords are parodies/interpretations of the original songs. You may use it for private study, scholarship, research or language learning purposes only