» » »

Real Talk Tabs (ver.1)

Artists:  A B C D E F G H I J K L M N O P Q R S T U V W X Y Z # 

Real Talk Tabs (ver.1)

Man Overboard
Rating:
5/5 (2 votes)

Hard to play? Try these video lessons and learn fast.
                ------------------------------------------------------------------------------
------------------------------------------------------------------------------



Tuning: Eb (Half Step Down)


VERSE ONE (0:01)

   (x1)
eb|--------------------------------------------------------------------------|
Bb|--------------------------------------------------------------------------|
Gb|--3-3-3-3-3-3-3---7-7-7-7-7-7-7-7---3-3-3-3-3-3-3-3---7-7-7-7-5-5-5-5-----|
Db|--3-3-3-3-3-3-3---7-7-7-7-7-7-7-7---3-3-3-3-3-3-3-3---7-7-7-7-5-5-5-5-----|
Ab|--1-1-1-1-1-1-1---5-5-5-5-5-5-5-5---1-1-1-1-1-1-1-1---5-5-5-5-3-3-3-3-----|
Eb|--------------------------------------------------------------------------|
                      You could say     two things       Call me sometime

   (x1)
eb|--------------------------------------------------------------------------|
Bb|--------------------------------------------------------------------------|
Gb|--3-3-3-3-3-3-3---7-7-7-7-7-7-7-7---5-5-5-5-5-5-5-5-5-5-5-5-5-5-5-5-------|
Db|--3-3-3-3-3-3-3---7-7-7-7-7-7-7-7---5-5-5-5-5-5-5-5-5-5-5-5-5-5-5-5-------|
Ab|--1-1-1-1-1-1-1---5-5-5-5-5-5-5-5---3-3-3-3-3-3-3-3-3-3-3-3-3-3-3-3-------|
Eb|--------------------------------------------------------------------------|
       hang out    or maybe I could     help   you   out

   (x2)
eb|--------------------------------------------------------------------------|
Bb|--------------------------------------------------------------------------|
Gb|--7-7-7-7-----5-5-5-5-----3-3-3-3-3-3-3-3---------------------------------|
Db|--7-7-7-7-----5-5-5-5-----3-3-3-3-3-3-3-3---------------------------------|
Ab|--5-5-5-5-----3-3-3-3-----1-1-1-1-1-1-1-1---------------------------------|
Eb|--------------------------------------------------------------------------|
  1  Stop acting like you'll ever see me again
  2                          And like I don't

PRECHORUS ONE (0:20)
 
   (x1)
eb|--------------------------------------------------------------------------|
Bb|--------------------------------------------------------------------------|
Gb|--3-3-3-3-3-3-3-3-3-3-3-3-3-3-3---7-7-7-7-7-7-7-7-7-7-7-7-7-7-7-7---------|
Db|--3-3-3-3-3-3-3-3-3-3-3-3-3-3-3---7-7-7-7-7-7-7-7-7-7-7-7-7-7-7-7---------|
Ab|--1-1-1-1-1-1-1-1-1-1-1-1-1-1-1---5-5-5-5-5-5-5-5-5-5-5-5-5-5-5-5---------|
Eb|--------------------------------------------------------------------------|
       I understand how it works      On paper, we're similar people

   (x1)
eb|--------------------------------------------------------------------------|
Bb|--------------------------------------------------------------------------|
Gb|--3-3-3-3-3-3-3-3-3-3-3-3-3-3-3---7-7-7-7-7-7-7-7-7-7-7-7-5---5-----------|
Db|--3-3-3-3-3-3-3-3-3-3-3-3-3-3-3---7-7-7-7-7-7-7-7-7-7-7-7-5---5-----------|
Ab|--1-1-1-1-1-1-1-1-1-1-1-1-1-1-1---5-5-5-5-5-5-5-5-5-5-5-5-3---3-----------|
Eb|--------------------------------------------------------------------------|
       I understand how it works           On paper, we're similar people
 
CHORUS ONE (0:33)

   (x1)
eb|--------------------------------------------------------------------------|
Bb|--------------------------------------------------------------------------|
Gb|--7-7-7-7-----5-5-5-5-----3-3-3-3-3-3-3-3---------------------------------|
Db|--7-7-7-7-----5-5-5-5-----3-3-3-3-3-3-3-3---------------------------------|
Ab|--5-5-5-5-----3-3-3-3-----1-1-1-1-1-1-1-1---------------------------------|
Eb|--------------------------------------------------------------------------|
           But we're different people

   (x1)
eb|--------------------------------------------------------------------------|
Bb|--------------------------------------------------------------------------|
Gb|--7-7-7-7-----5-5-5-5-----3-3-3-3---3--3----------------------------------|
Db|--7-7-7-7-----5-5-5-5-----3-3-3-3---3--3----------------------------------|
Ab|--5-5-5-5-----3-3-3-3-----1-1-1-1---1--1----------------------------------|
Eb|--------------------------------------------------------------------------|
             We're different people

VERSE TWO (0:39):

   (x1)
eb|--------------------------------------------------------------------------|
Bb|--------------------------------------------------------------------------|
Gb|--3-3-3-3-3-3-3---7-7-7-7-7-7-7-7---3-3-3-3-3-3-3-3---7-7-7-7-5-5-5-5-----|
Db|--3-3-3-3-3-3-3---7-7-7-7-7-7-7-7---3-3-3-3-3-3-3-3---7-7-7-7-5-5-5-5-----|
Ab|--1-1-1-1-1-1-1---5-5-5-5-5-5-5-5---1-1-1-1-1-1-1-1---5-5-5-5-3-3-3-3-----|
Eb|--------------------------------------------------------------------------|
                     You're tearing      walls   I       built until they

   (x1)
eb|--------------------------------------------------------------------------|
Bb|--------------------------------------------------------------------------|
Gb|--3-3-3-3-3-3-3---7-7-7-7-7-7-7-7---5-5-5-5-5-5-5-5-5-5-5-5-5-5-5-5-------|
Db|--3-3-3-3-3-3-3---7-7-7-7-7-7-7-7---5-5-5-5-5-5-5-5-5-5-5-5-5-5-5-5-------|
Ab|--1-1-1-1-1-1-1---5-5-5-5-5-5-5-5---3-3-3-3-3-3-3-3-3-3-3-3-3-3-3-3-------|
Eb|--------------------------------------------------------------------------|
     scr*ped the      wrecking crew     welcome you            when the

   (x1)
eb|--------------------------------------------------------------------------|
Bb|--------------------------------------------------------------------------|
Gb|--7-7-7-7-----5-5-5-5-----3-----7-7-7-7-----5-5-5-5-----3-3-3-3-3-3-3-3---|
Db|--7-7-7-7-----5-5-5-5-----3-----7-7-7-7-----5-5-5-5-----3-3-3-3-3-3-3-3---|
Ab|--5-5-5-5-----3-3-3-3-----1-----5-5-5-5-----3-3-3-3-----1-1-1-1-1-1-1-1---|
Eb|--------------------------------------------------------------------------|
     days slow    down    summer                 I did two years in your
                       
PRECHORUS TWO (0:58):

   (x1)
eb|--------------------------------------------------------------------------|
Bb|--------------------------------------------------------------------------|
Gb|--3-3-3-3-3-3-3-3-3-3-3-3-3-3-3---7-7-7-7-7-7-7-7-7-7-7-7-7-7-7-7---------|
Db|--3-3-3-3-3-3-3-3-3-3-3-3-3-3-3---7-7-7-7-7-7-7-7-7-7-7-7-7-7-7-7---------|
Ab|--1-1-1-1-1-1-1-1-1-1-1-1-1-1-1---5-5-5-5-5-5-5-5-5-5-5-5-5-5-5-5---------|
Eb|--------------------------------------------------------------------------|
      Your jaws of steel never        It's haunting the way silence

   (x1)
eb|--------------------------------------------------------------------------|
Bb|--------------------------------------------------------------------------|
Gb|--3-3-3-3-3-3-3-3-3-3-3-3-3-3-3---7-7-7-7-7-7-7-7-7-7-7-7-5---5-----------|
Db|--3-3-3-3-3-3-3-3-3-3-3-3-3-3-3---7-7-7-7-7-7-7-7-7-7-7-7-5---5-----------|
Ab|--1-1-1-1-1-1-1-1-1-1-1-1-1-1-1---5-5-5-5-5-5-5-5-5-5-5-5-3---3-----------|
Eb|--------------------------------------------------------------------------|
      If I f**ked up long ago          I'm sorry, I didn't realize
 
CHORUS TWO (1:11):

   (x2)
eb|--------------------------------------------------------------------------|
Bb|--------------------------------------------------------------------------|
Gb|--7-7-7-7-----5-5-5-5-----3-3-3-3-3-3-3-3---------------------------------|
Db|--7-7-7-7-----5-5-5-5-----3-3-3-3-3-3-3-3---------------------------------|
Ab|--5-5-5-5-----3-3-3-3-----1-1-1-1-1-1-1-1---------------------------------|
Eb|--------------------------------------------------------------------------|
  1       I didn't realize it counted
  2       I didn't realize it counted

BRIDGE (1:18)

   (x1)
eb|--------------------------------------------------------------------------|
Bb|--------------------------------------------------------------------------|
Gb|--------------------------------------------------------------------------|
Db|------5-----5---5-------8-----8---8-------5-----5---5-------8-----8---8---|
Ab|--3-3---3-3---3-----6-6---6-6---6-----3-3---3-3---3-----6-6---6-6---6-----|
Eb|--------------------------------------------------------------------------|

   (x1)
eb|--------------------------------------------------------------------------|
Bb|--------------------------------------------------------------------------|
Gb|--5---5-5--5-5-5----8---8-8--8-8-8----5---5-5--5-5-5-------3-------5------|
Db|--5---5-5--5-5-5----8---8-8--8-8-8----5---5-5--5-5-5-------3-------5------|
Ab|--3---3-3--3-3-3----6---6-6--6-6-6----3---3-3--3-3-3-------1------ 3------|
Eb|--------------------------------------------------------------------------|
                           Just wouldn't work out             That's

FINAL CHORUS (1:30)

    (x3)
eb|--------------------------------------------------------------------------|
Bb|--------------------------------------------------------------------------|
Gb|--7-7-7-7-----5-5-5-5-----3-3-3-3-3-3-3-3---------------------------------|
Db|--7-7-7-7-----5-5-5-5-----3-3-3-3-3-3-3-3---------------------------------|
Ab|--5-5-5-5-----3-3-3-3-----1-1-1-1-1-1-1-1---------------------------------|
Eb|--------------------------------------------------------------------------|
  1    That's what I'm telling myself (That we're just two different people)
  2    That's what I'm telling myself (That we're just two different people)
  3    That's what I'm telling myself (That we're just two different people)
  
   (x1)
eb|--------------------------------------------------------------------------|
Bb|--------------------------------------------------------------------------|
Gb|--7-7---------5-5----------------3----------------------------------------|
Db|--7-7---------5-5----------------3--------  F E E D B A C K  -------------|
Ab|--5-5---------3-3----------------1----------------------------------------|
Eb|--------------------------------------------------------------------------|
     That's what telling my---------self!
            
Hard to play? Try these video lessons and learn fast. | Correct




comments powered by Disqus
↑ Back to top | Tablatures and chords are parodies/interpretations of the original songs. You may use it for private study, scholarship, research or language learning purposes only