>
 >
I Like You

I Like You Guitar Tabs

Man Overboard - I Like You chords, tabs, tablatures, lyrics

Guitar lessons | Add/correct | Request | Top 50 tabs Artists:  A B C D E F G H I J K L M N O P Q R S T U V W X Y Z 0-9

I Like You Guitar Tabs – Man Overboard

CD, Sheet music, Poster

Do you like I Like You? Share with your friends now
ChordsTabsUkulele
------------------------------------------------------------------------------
------------------------------------------------------------------------------



Tuning: Eb (Half Step Down)

VERSE ONE (0:09)

    **BASS** (x2)
eb|--------------------------------------------------------------------------|
Bb|--------------------------------------------------------------------------|
Gb|--------------------------------------------------------------------------|
Db|--------------------------------------------------------------------------|
Ab|-------------------3-3-3-3-3-3-3-3----------3-3-3-3-5-5-5-5-5-5-5-5-------|
Eb|--0-0-0-0-0-0-0-0-------------------3-3-3-3-------------------------------|
   
    **GUITAR** (x2) - Be gentle on the power chords and improvise if you want
eb|--------------------------------------------------------------------------|
Bb|--------------------------------------------------------------------------|
Gb|-------5--------------5-----------------------------7---------------------|
Db|--2-------5--------------5------------5-------5-----7---------------------|
Ab|--2----------------3--------------------5-------5---5---------------------|
Eb|--0---------------------------------3-------3-----------------------------|
  1     Looks like     hands, who        all     could       be
  2     All I know     pretend you're    close     to        me

PRECHORUS ONE (0:29)

eb|--------------------------------------------------------------------------|
Bb|--------------------------------------------------------------------------|
Gb|-----------------------------------5--5-5-5-5-5-5-5-5-5-5-5-5-5-5---------|
Db|--2--2-2-2-2-2-2-2-2-2-2-2-2-2-2---5--5-5-5-5-5-5-5-5-5-5-5-5-5-5---------|
Ab|--2--2-2-2-2-2-2-2-2-2-2-2-2-2-2---3--3-3-3-3-3-3-3-3-3-3-3-3-3-3---------|
Eb|--0--0-0-0-0-0-0-0-0-0-0-0-0-0-0------------------------------------------|
        P.M------------------------|     P.M------------------------|
          Laying somewhere where I'm happy that I'm here      And my


eb|--------------------------------------------------------------------------|
Bb|--------------------------------------------------------------------------|
Gb|--------------------------------------------------------------------------|
Db|--5--5-5-5-5-5-5-5-5-5-5-5-5-5-5---4-4-4-4-4-4-4-4-4-4-4-4-4-4-4-4--------|
Ab|--5--5-5-5-5-5-5-5-5-5-5-5-5-5-5---5-5-5-5-5-5-5-5-5-5-5-5-5-5-5-5--------|
Eb|--3--3-3-3-3-3-3-3-3-3-3-3-3-3-3---2-2-2-2-2-2-2-2-2-2-2-2-2-2-2-2--------|
        P.M----------------------------------------------------------|
      troubles say goodbye and the     heartache disappeared

eb|--------------------------------------------------------------------------|
Bb|--------------------------------------------------------------------------|
Gb|-----------------------------------5--5-5-5-5-5-5-5-5-5-5-5-5-5-5---------|
Db|--2--2-2-2-2-2-2-2-2-2-2-2-2-2-2---5--5-5-5-5-5-5-5-5-5-5-5-5-5-5---------|
Ab|--2--2-2-2-2-2-2-2-2-2-2-2-2-2-2---3--3-3-3-3-3-3-3-3-3-3-3-3-3-3---------|
Eb|--0--0-0-0-0-0-0-0-0-0-0-0-0-0-0------------------------------------------|
        P.M------------------------|     P.M------------------------|
           I miss you most when I     act like I don't care bout the
   
eb|--------------------------------------------------------------------------|
Bb|--------------------------------------------------------------------------|
Gb|------------------------------------5------------7----7----7--------------|
Db|--5---------------------------------5------------7----7----7--------------|
Ab|--5---------------------------------3------------5----5----5--------------|
Eb|--3-----------------------------------------------------------------------|
       warm hands, I think that we're  best friends 

VERSE TWO (0:48) 

    **BASS** (x2)
eb|--------------------------------------------------------------------------|
Bb|--------------------------------------------------------------------------|
Gb|--------------------------------------------------------------------------|
Db|--------------------------------------------------------------------------|
Ab|-------------------3-3-3-3-3-3-3-3----------3-3-3-3-5-5-5-5-5-5-5-5-------|
Eb|--0-0-0-0-0-0-0-0-------------------3-3-3-3-------------------------------|
   
    **GUITAR** (x1) - Join on bass's second round
eb|--------------------------------------------------------------------------|
Bb|--------------------------------------------------------------------------|
Gb|-------5--------------5-----------------------------7---------------------|
Db|--2-------5--------------5------------5-------5-----7---------------------|
Ab|--2----------------3--------------------5-------5---5---------------------|
Eb|--0---------------------------------3-------3-----------------------------|
  1    I like your    you're ever-     girl   could     be
  2  toast to         now and I just   w   o   n  '  t  leave  (I'm finally)

PRECHORUS TWO (1:07)

   (x1)
eb|--------------------------------------------------------------------------|
Bb|--------------------------------------------------------------------------|
Gb|-----------------------------------5-5-5-5-5-5-5-5-5-5-5-5-5-5-5-5--------|
Db|--2-2-2-2-2-2-2-2-2-2-2-2-2-2-2-2--5-5-5-5-5-5-5-5-5-5-5-5-5-5-5-5--------|
Ab|--2-2-2-2-2-2-2-2-2-2-2-2-2-2-2-2--3-3-3-3-3-3-3-3-3-3-3-3-3-3-3-3--------|
Eb|--0-0-0-0-0-0-0-0-0-0-0-0-0-0-0-0-----------------------------------------|
         Laying somewhere where I'm   happy that I'm here      And my

   (x1)
eb|--------------------------------------------------------------------------|
Bb|--------------------------------------------------------------------------|
Gb|--------------------------------------------------------------------------|
Db|--5-5-5-5-5-5-5-5-5-5-5-5-5-5-5-5--4-4-4-4-4-4-4-4-4-4-4-4-4-4-4-4--------|
Ab|--5-5-5-5-5-5-5-5-5-5-5-5-5-5-5-5--5-5-5-5-5-5-5-5-5-5-5-5-5-5-5-5--------|
Eb|--3-3-3-3-3-3-3-3-3-3-3-3-3-3-3-3--2-2-2-2-2-2-2-2-2-2-2-2-2-2-2-2--------|
       troubles say goodbye and the     heartache disappeared

   (x1)
eb|--------------------------------------------------------------------------|
Bb|--------------------------------------------------------------------------|
Gb|-----------------------------------5-5-5-5-5-5-5-5-5-5-5-5-5-5-5-5--------|
Db|--2-2-2-2-2-2-2-2-2-2-2-2-2-2-2-2--5-5-5-5-5-5-5-5-5-5-5-5-5-5-5-5--------|
Ab|--2-2-2-2-2-2-2-2-2-2-2-2-2-2-2-2--3-3-3-3-3-3-3-3-3-3-3-3-3-3-3-3--------|
Eb|--0-0-0-0-0-0-0-0-0-0-0-0-0-0-0-0-----------------------------------------|
        I miss you most when I         act like I don't care bout the

   (x1)
eb|--------------------------------------------------------------------------|
Bb|--------------------------------------------------------------------------|
Gb|------------------------------------5------------7----7----7----7---------|
Db|--5---------------------------------5------------7----7----7----7---------|
Ab|--5---------------------------------3------------5----5----5----5---------|
Eb|--3-----------------------------------------------------------------------|
       warm hands, I think that we're  best friends 

CHORUS ONE (1:26)

   (x1)
eb|--------------------------------------------------------------------------|
Bb|--------------------------------------------------------------------------|
Gb|----------------------------------5--5-5--5-5-5--5--5-5--5-5-5------------|
Db|--5--5-5--5-5-5--5--5-5--5-5-5----5--5-5--5-5-5--5--5-5--5-5-5------------|
Ab|--5--5-5--5-5-5--5--5-5--5-5-5----3--3-3--3-3-3--3--3-3--3-3-3------------|
Eb|--3--3-3--3-3-3--3--3-3--3-3-3--------------------------------------------|
      You and me,    we could        be     

   (x1)
eb|--------------------------------------------------------------------------|
Bb|--------------------------------------------------------------------------|
Gb|----------------------------------7--7-7--7-7-7--7--7-7--7-7-7------------|
Db|--5--5-5--5-5-5--5--5-5--5-5-5----7--7-7--7-7-7--7--7-7--7-7-7------------|
Ab|--5--5-5--5-5-5--5--5-5--5-5-5----5--5-5--5-5-5--5--5-5--5-5-5------------|
Eb|--3--3-3--3-3-3--3--3-3--3-3-3--------------------------------------------|
      You and me,   I could          see      (I'm in it for the                  

   (x1)
eb|--------------------------------------------------------------------------|
Bb|--------------------------------------------------------------------------|
Gb|----------------------------------5--5-5--5-5-5--5--5-5--5-5-5------------|
Db|--2--2-2--2-2-2--2--2-2--2-2-2----5--5-5--5-5-5--5--5-5--5-5-5------------|
Ab|--2--2-2--2-2-2--2--2-2--2-2-2----3--3-3--3-3-3--3--3-3--3-3-3------------|
Eb|--0--0-0--0-0-0--0--0-0--0-0-0--------------------------------------------|
      You and me,    we could        be       (I'm in it for the

   (x1)
eb|--------------------------------------------------------------------------|
Bb|--------------------------------------------------------------------------|
Gb|----------------------------------7----7----7----7------------------------|
Db|--5--5-5--5-5-5--5--5-5--5-5-5----7----7----7----7------------------------|
Ab|--5--5-5--5-5-5--5--5-5--5-5-5----5----5----5----5------------------------|
Eb|--3--3-3--3-3-3--3--3-3--3-3-3--------------------------------------------|
      You and me,   I could          see         I like you                  

SOLO (1:46):

** Rhythm continues playing chorus **

   (x1)
eb|--------------------------------------------------------------------------|
Bb|--------------------------------------------------------------------------|
Gb|--------------------------------------------------------------------------|
Db|--12-12-12--9-9h10p9-9---12-12-12--9-9-9----10---9---9h10p9-7-------------|
Ab|--------------------------------------------------------------------------|
Eb|--------------------------------------------------------------------------|

   (x1)
eb|-----------------------------------7-8-7----7--------10-7---10-7---10-7---|
Bb|------8-10-8-7--------8-10-8---10--------10---10----------8------8--------|
Gb|----7---------------7-----------------------------------------------------|
Db|--9---------------9-------------------------------------------------------|
Ab|--------------------------------------------------------------------------|
Eb|--------------------------------------------------------------------------|

FINAL CHORUS (2:05)

   (x1)
eb|--------------------------------------------------------------------------|
Bb|--------------------------------------------------------------------------|
Gb|----------------------------------5--5-5--5-5-5--5--5-5--5-5-5------------|
Db|--5--5-5--5-5-5--5--5-5--5-5-5----5--5-5--5-5-5--5--5-5--5-5-5------------|
Ab|--5--5-5--5-5-5--5--5-5--5-5-5----3--3-3--3-3-3--3--3-3--3-3-3------------|
Eb|--3--3-3--3-3-3--3--3-3--3-3-3--------------------------------------------|
       Back you'll be running                      You better come

   (x1)
eb|--------------------------------------------------------------------------|
Bb|--------------------------------------------------------------------------|
Gb|----------------------------------7--7-7--7-7-7--7--7-7--7-7-7------------|
Db|--5--5-5--5-5-5--5--5-5--5-5-5----7--7-7--7-7-7--7--7-7--7-7-7------------|
Ab|--5--5-5--5-5-5--5--5-5--5-5-5----5--5-5--5-5-5--5--5-5--5-5-5------------|
Eb|--3--3-3--3-3-3--3--3-3--3-3-3--------------------------------------------|
       Back you'll be running                    I'm in for the

   (x1)
eb|--------------------------------------------------------------------------|
Bb|--------------------------------------------------------------------------|
Gb|----------------------------------5--5-5--5-5-5--5--5-5--5-5-5------------|
Db|--2--2-2--2-2-2--2--2-2--2-2-2----5--5-5--5-5-5--5--5-5--5-5-5------------|
Ab|--2--2-2--2-2-2--2--2-2--2-2-2----3--3-3--3-3-3--3--3-3--3-3-3------------|
Eb|--0--0-0--0-0-0--0--0-0--0-0-0--------------------------------------------|
       Back you'll be running                    I'm in for the

   (x1)
eb|--------------------------------------------------------------------------|
Bb|--------------------------------------------------------------------------|
Gb|----------------------------------7----7----7----7------------------------|
Db|--5--5-5--5-5-5--5--5-5--5-5-5----7----7----7----7------------------------|
Ab|--5--5-5--5-5-5--5--5-5--5-5-5----5----5----5----5------------------------|
Eb|--3--3-3--3-3-3--3--3-3--3-3-3--------------------------------------------|
      l  o  n  g    h  a  u  l       see           I like you

END ON (2:25)

   (x1)
eb|-----|
Bb|-----|
Gb|-----|
Db|--5--|
Ab|--5--|
Eb|--3--|
       





Comments


Popular Man Overboard tabs & chords
Rare Bass Tabs
Heart Attack Chords
Secret Pain Chords
Spunn Chords
Love Your Friends, Die Laughing Tabs
Real Talk Tabs
The Usual Results Tabs
Where I Left You Tabs
I Like You Ukulele
The Absolute Worst Ukulele


Song lyrics



↑ Back to top | Tablatures and chords are parodies/interpretations of the original songs. You may use it for private study, scholarship, research or language learning purposes only
© 2014 AZChords.com Contact us | Privacy policy | DMCA | Add/correct tabs | Request tabs | Top 50 tabs