>
 >
Dreaming 1

Dreaming 1 Guitar Tabs

Man Overboard - Dreaming 1 chords, tabs, tablatures, lyrics

Guitar lessons | Add/correct | Request | Top 50 tabs Artists:  A B C D E F G H I J K L M N O P Q R S T U V W X Y Z 0-9

Dreaming 1 Guitar Tabs – Man Overboard

CD, Sheet music, Poster

Do you like Dreaming 1? Share with your friends now
TabsTabs v2
------------------------------------------------------------------------------
                        DREAMING - MAN OVERBOARD
------------------------------------------------------------------------------


Tuning: Eb (Half Step Down)

VERSE ONE (0:01)
  
   (x4) GUITAR ONE
eb|------------------------|
Bb|------------------------|
Gb|-------7-7--9-9--11-11--|
Db|--7-7--7-7--9-9--11-11--|
Ab|--7-7--5-5--7-7---9--9--|
Eb|--5-5-------------------|
  1  Took the same route
  2  Even though I woke
  3  Dreaming of something
  4  Could become my

   (x4) GUITAR TWO **
eb|------------------------|
Bb|------------------------|
Gb|-------7-7--------------|
Db|--7-7--7-7--2-2--4-4----|
Ab|--7-7--5-5--2-2--4-2----|
Eb|--5-5-------0-0--2-2----|

** Guitar Two plays same chords, different position on the neck.
If playing solo, see what sounds better to you.

CHORUS ONE (0:13)

   (x2)
eb|--------------------------------------------------------------------------|
Bb|--------------------------------------------------------------------------|
Gb|------------------------------------7-7-7-7-7-7-7-7--9-9-9-9-9-9-9-9------|
Db|--4-4-4-4-4-4-4-4--7-7-7-7-7-7-7-7--7-7-7-7-7-7-7-7--9-9-9-9-9-9-9-9------|
Ab|--4-4-4-4-4-4-4-4--7-7-7-7-7-7-7-7--5-5-5-5-5-5-5-5--7-7-7-7-7-7-7-7------|
Eb|--2-2-2-2-2-2-2-2--5-5-5-5-5-5-5-5----------------------------------------|
  1    She could  be   come my         everything or     whisper in my
  2    ear, across     highway,        highway to        catch you

eb|--------------------------------------------------------------------------|
Bb|--------------------------------------------------------------------------|
Gb|-------------------7-7-7-7-7-7-7-7-------------------9-9-9-9-9-9-9-9------|
Db|--4-4-4-4-4-4-4-4--7-7-7-7-7-7-7-7--7-7-7-7-7-7-7-7--9-9-9-9-9-9-9-9------|
Ab|--4-4-4-4-4-4-4-4--5-5-5-5-5-5-5-5--7-7-7-7-7-7-7-7--7-7-7-7-7-7-7-7------|
Eb|--2-2-2-2-2-2-2-2-------------------5-5-5-5-5-5-5-5-----------------------|
  1    catch you       be all that     I could honest    ly ask 
  2    for                     from    you

VERSE TWO (0:36)
  
   (x6)
eb|------------------------|
Bb|------------------------|
Gb|-------7-7--9-9--11-11--|
Db|--7-7--7-7--9-9--11-11--|
Ab|--7-7--5-5--7-7---9--9--|
Eb|--5-5-------------------|
  1                   And that's true
  2  
  3  Something about the
  4  8:30 and in her
  5  Could be a sign
  6  At me

   (x6) GUITAR TWO
eb|------------------------|
Bb|------------------------|
Gb|-------7-7--------------|
Db|--7-7--7-7--2-2--4-4----|
Ab|--7-7--5-5--2-2--4-2----|
Eb|--5-5-------0-0--2-2----|

CHORUS TWO (0:54)

   (x2)
eb|--------------------------------------------------------------------------|
Bb|--------------------------------------------------------------------------|
Gb|------------------------------------7-7-7-7-7-7-7-7--9-9-9-9-9-9-9-9------|
Db|--4-4-4-4-4-4-4-4--7-7-7-7-7-7-7-7--7-7-7-7-7-7-7-7--9-9-9-9-9-9-9-9------|
Ab|--4-4-4-4-4-4-4-4--7-7-7-7-7-7-7-7--5-5-5-5-5-5-5-5--7-7-7-7-7-7-7-7------|
Eb|--2-2-2-2-2-2-2-2--5-5-5-5-5-5-5-5----------------------------------------|
  1    She could  be   come my         everything or     whisper in my
  2    ear, across     highway,        highway to        catch you

eb|--------------------------------------------------------------------------|
Bb|--------------------------------------------------------------------------|
Gb|-------------------7-7-7-7-7-7-7-7-------------------9-9-9-9-9-9-9-9------|
Db|--4-4-4-4-4-4-4-4--7-7-7-7-7-7-7-7--7-7-7-7-7-7-7-7--9-9-9-9-9-9-9-9------|
Ab|--4-4-4-4-4-4-4-4--5-5-5-5-5-5-5-5--7-7-7-7-7-7-7-7--7-7-7-7-7-7-7-7------|
Eb|--2-2-2-2-2-2-2-2-------------------5-5-5-5-5-5-5-5-----------------------|
  1    catch you       be all that     I could honest    ly ask 
  2    for                     from    you

BRIDGE (1:18):

   (x1)
eb|----------------------|
Bb|----------------------|
Gb|----------------------|
Db|--4----------------7--|
Ab|--4--  LET RING  --7--|
Eb|--2----------------5--|

   (x3)
eb|--------------------------------------------------------------------------|
Bb|--------------------------------------------------------------------------|
Gb|--------------------------------------------------------------------------|
Db|--4-4-4-4-4-4-4-4-4-4-4-4-4-4-4-4-4-4-4-4-4-4-4-4--7----------------------|
Ab|---------------------------------------------------7--  LET RING  --------|
Eb|---------------------------------------------------5----------------------|
     P.M--------------------------------------------|
  1
  2  And I don't know how many times that I would     dreaming
  3  The way her hair falls on top of her shoulders   screaming

BACK TO CHORUS (1:43)

   (x4)
eb|--------------------------------------------------------------------------|
Bb|--------------------------------------------------------------------------|
Gb|-------------------7-7-7-7-7-7-7-7-------------------9-9-9-9-9-9-9-9------|
Db|--4-4-4-4-4-4-4-4--7-7-7-7-7-7-7-7--7-7-7-7-7-7-7-7--9-9-9-9-9-9-9-9------|
Ab|--4-4-4-4-4-4-4-4--5-5-5-5-5-5-5-5--7-7-7-7-7-7-7-7--7-7-7-7-7-7-7-7------|
Eb|--2-2-2-2-2-2-2-2-------------------5-5-5-5-5-5-5-5-----------------------|
  1   And I don't     times that I      ask her if I'm   dreaming
  2   The way her      on top of her    makes me feel    screaming
  3   And I don't     times that I      ask her if I'm   dreaming
  4   The way her      on top of her    makes me feel    screaming

END ON (2:07)

eb|-------------------|
Bb|-------------------|
Gb|-------------------|
Db|--7----------------|
Ab|--7--  LET RING  --|
Eb|--5----------------|





Comments


Popular Man Overboard tabs & chords
The Absolute Worst Bass Tabs
I Like You Chords
Where I Left You Chords
Arlington Drive Tabs
Dreaming Tabs
Dylan's Song Tabs
Fantasy Girl Tabs
I Like You Tabs
Love Your Friends, Die Laughing Tabs
Montrose Ukulele


Song lyrics



↑ Back to top | Tablatures and chords are parodies/interpretations of the original songs. You may use it for private study, scholarship, research or language learning purposes only
© 2014 AZChords.com Contact us | Privacy policy | DMCA | Add/correct tabs | Request tabs | Top 50 tabs