» » »

Disconnect Tabs (ver.1)

Artists:  A B C D E F G H I J K L M N O P Q R S T U V W X Y Z # 

Disconnect Tabs (ver.1)

Man Overboard
Rating:
0/5 (0 votes)

Hard to play? Try these video lessons and learn fast.
                ------------------------------------------------------------------------------
------------------------------------------------------------------------------


Tuning :    Eb (Half Step Down)
            Eb, Ab, Db, Gb, Bb, eb

Key :       Eb Major

VERSE ONE (0:01)

I drove through Berlin to-

   (x2)
eb|--------------------------------------------------------------|
Bb|--------------------------------------------------------------|
Gb|--------------------------------------------------------------|
Db|--9--9--9--9--9--9----9-9-9-9----9--9--9--9--9--9----9-9-9-9--|
Ab|--7--7--7--7--7--7----7-7-7-7----6--6--6--6--6--6----6-6-6-6--|
Eb|--------------------------------------------------------------|
  1  -night       Straight shot       highway            chest
  2    Walked around                  on a Sunday      for three

eb|--------------------------------------------------------------|
Bb|--------------------------------------------------------------|
Gb|--------------------------------------------------------------|
Db|--6--6--6--6--6--6----6-6-6-6---------------------------------|
Ab|--4--4--4--4--4--4----4-4-4-4----7--7--7--7--7--7----7-7-7-7--|
Eb|---------------------------------5--5--5--5--5--5----5-5-5-5--|
  1   Thought about missing you     meaning of the word futile
  2   hours

PRECHORUS (0:22)

   (x1)
eb|-----------------------------------------------------------------------|
Bb|-----------------------------------------------------------------------|
Gb|------------------------------------------------------9----------------|
Db|--9---------------------------------7-----------------9--  LET RING  --|
Ab|--9--  LET RING  -------------------7--  LET RING  ---7----------------|
Eb|--7---------------------------------5----------------------------------|
  1  Thought about home and how you wouldn't       be  there

   (x1)
eb|-----------------------------------------------------------------------|
Bb|-----------------------------------------------------------------------|
Gb|-----------------------------------------------------------------------|
Db|--9----------------------7----------------------------------9----------|
Ab|--9--  LET RING  --------7--  LET RING  --------------------9----------|
Eb|--7----------------------5------------------7-7-7-7-7-7-7-7-7----------|
                                               P.M------------|
  1  Thought of me and how you just don't       care

CHORUS ONE (0:31)

   (x2)
eb|-----------------------------------------------------------------|
Bb|-----------------------------------------------------------------|
Gb|------------------------------------6--6--6-6-6-6--6-6--6-6-6-6--|
Db|--7--7--7-7-7----9--9-9--9-9-9-9----6--6--6-6-6-6--6-6--6-6-6-6--|
Ab|--7--7--7-7-7----9--9-9--9-9-9-9----4--4--4-4-4-4--4-4--4-4-4-4--|
Eb|--5--5--5-5-5----7--7-7--7-7-7-7---------------------------------|
  1  Swear I saw    reflection in the  rain on the  concrete, you
  2  standing       me and your        lips were on my cheek and

   (x1)
eb|----------------------------------------------------------------------------|
Bb|----------------------------------------------------------------------------|
Gb|------------------------------------9---------9---------6---------6---------|
Db|--7--7--7-7-7----9--9-9--9-9-9-9----9---------9---------6---------6---------|
Ab|--7--7--7-7-7----9--9-9--9-9-9-9----7---------7---------4---------4---------|
Eb|--5--5--5-5-5----7--7-7--7-7-7-7-------0-0-0-----0-0-0-----0-0-0-----0-0-0--|
                                          P.M--|    P.M--|    P.M--|    P.M--|
  1  Swear I feel  dissection of the whole me when you  leave

   (x1)
eb|-------------------------------------------------------------|
Bb|-------------------------------------------------------------|
Gb|------------------------------------6------------------------|
Db|--7--7--7-7-7----9--9-9--9-9-9-9----6--  LET RING  ----------|
Ab|--7--7--7-7-7----9--9-9--9-9-9-9----4------------------------|
Eb|--5--5--5-5-5----7--7-7--7-7-7-7-----------------------------|
  1  Grown to hate  this connection,   connection that I weave

VERSE TWO (0:54)

   (x1)
eb|-------------------------------------------------------------|
Bb|-------------------------------------------------------------|
Gb|-------------------------------------------------------------|
Db|--9--9-9-9-9-9--9-9--9-9-9----9--9--9-9-9-9----9-9--9-9-9-9--|
Ab|--7--7-7-7-7-7--7-7--7-7-7----6--6--6-6-6-6----6-6--6-6-6-6--|
Eb|-------------------------------------------------------------|
  1  I drowned you in alcohol   night

   (x1)
eb|-------------------------------------------------------------|
Bb|-------------------------------------------------------------|
Gb|-------------------------------------------------------------|
Db|--6--6-6-6-6-6--6-6--6-6-6-----------------------------------|
Ab|--4--4-4-4-4-4--4-4--4-4-4----7--7--7-7-7-7----7-7--7-7-7-7--|
Eb|------------------------------5--5--5-5-5-5----5-5--5-5-5-5--|
  1  airholes through my         chest

   (x1)
eb|-------------------------------------------------------------|
Bb|-------------------------------------------------------------|
Gb|-------------------------------------------------------------|
Db|--9--9-9-9-9-9--9-9--9-9-9----9--9--9-9-9-9----9-9--9-9-9-9--|
Ab|--7--7-7-7-7-7--7-7--7-7-7----6--6--6-6-6-6----6-6--6-6-6-6--|
Eb|-------------------------------------------------------------|
  1  hard to maintain             place in my heart and

   (x1)
eb|-------------------------------------------------------------|
Bb|-------------------------------------------------------------|
Gb|-------------------------------------------------------------|
Db|--6--6-6-6-6-6--6-6--6-6-6-----------------------------------|
Ab|--4--4-4-4-4-4--4-4--4-4-4----7--  LET RING  --  PICKScr*pE -|
Eb|------------------------------5------------------------------|
  1  on               my        mind

CHORUS TWO (1:14)

   (x2)
eb|-----------------------------------------------------------------|
Bb|-----------------------------------------------------------------|
Gb|------------------------------------6--6--6-6-6-6--6-6--6-6-6-6--|
Db|--7--7--7-7-7----9--9-9--9-9-9-9----6--6--6-6-6-6--6-6--6-6-6-6--|
Ab|--7--7--7-7-7----9--9-9--9-9-9-9----4--4--4-4-4-4--4-4--4-4-4-4--|
Eb|--5--5--5-5-5----7--7-7--7-7-7-7---------------------------------|
  1  Swear I saw    reflection in the  rain on the  concrete, you
  2  standing       me and your        lips were on my cheek and

   (x1)
eb|----------------------------------------------------------------------------|
Bb|----------------------------------------------------------------------------|
Gb|------------------------------------9---------9---------6---------6---------|
Db|--7--7--7-7-7----9--9-9--9-9-9-9----9---------9---------6---------6---------|
Ab|--7--7--7-7-7----9--9-9--9-9-9-9----7---------7---------4---------4---------|
Eb|--5--5--5-5-5----7--7-7--7-7-7-7-------0-0-0-----0-0-0-----0-0-0-----0-0-0--|
                                          P.M--|    P.M--|    P.M--|    P.M--|
  1  Swear I feel  dissection of the whole me when you  leave

   (x1)
eb|-----------------------------------|
Bb|-----------------------------------|
Gb|-----------------------------------|
Db|--7--7--7-7-7----9--9-9--9-9-9-9---|
Ab|--7--7--7-7-7----9--9-9--9-9-9-9---|
Eb|--5--5--5-5-5----7--7-7--7-7-7-7---|
  1  Grown to hate  this connection 

BRIDGE - RHYTHM (1:31)

   (x1)
eb|--------------------------------------------------------------------|
Bb|--------------------------------------------------------------------|
Gb|--6-6-6-6-6-6-6-6-6-6-6-6-6-6-6-6-----------------------------------|
Db|--6-6-6-6-6-6-6-6-6-6-6-6-6-6-6-6--7-7-7-7-7-7-7-7-7-7-7-7-7-7-7-7--|
Ab|--4-4-4-4-4-4-4-4-4-4-4-4-4-4-4-4--7-7-7-7-7-7-7-7-7-7-7-7-7-7-7-7--|
Eb|-----------------------------------5-5-5-5-5-5-5-5-5-5-5-5-5-5-5-5--|
  1   -connection that I weave       -thin

   (x1)
eb|--------------------------------------------------------------------|
Bb|--------------------------------------------------------------------|
Gb|--6-6-6-6-6-6-6-6-6-6-6-6-6-6-6-6-----------------------------------|
Db|--6-6-6-6-6-6-6-6-6-6-6-6-6-6-6-6--9-9-9-9-9-9-9-9-9-9-9-9-9-9-9-9--|
Ab|--4-4-4-4-4-4-4-4-4-4-4-4-4-4-4-4--9-9-9-9-9-9-9-9-9-9-9-9-9-9-9-9--|
Eb|-----------------------------------7-7-7-7-7-7-7-7-7-7-7-7-7-7-7-7--|
  1   -connection that I weave       -thin

BRIDGE - LEAD (1:31)

   (x3)                                           (x2) - (1:46) 
eb|----------------------------------------------|---------------------------|
Bb|----------------------------------------------|---------------------------|
Gb|--6-6-6-6--8-8--9-9--14-14-14-13-13-13-13-13--|--11-11-11-11-11-11-11-11--|
Db|--x-x-x-x--x-x--x-x---x--x--x--x--x--x--x--x--|---x--x--x--x--x--x--x--x--|
Ab|--4-4-4-4--6-6--7-7--12-12-12-11-11-11-11-11--|---9--9--9--9--9--9--9--9--|
Eb|----------------------------------------------|---------------------------|

FINAL CHORUS (1:51)

   (x2)
eb|------------------------------------------|
Bb|------------------------------------------|
Gb|-------------------------6-6-6-6-6-6-6-6--|
Db|--7-7-7-7-----9-9-9-9----6-6-6-6-6-6-6-6--|
Ab|--7-7-7-7-----9-9-9-9----4-4-4-4-4-4-4-4--|
Eb|--5-5-5-5-----7-7-7-7---------------------|
  1  Swear I   reflection   rain on the 
  2  Standing next to me    lips were on

   (x1)
eb|----------------------------------------------------------------------------|
Bb|----------------------------------------------------------------------------|
Gb|------------------------------------9---------9---------6---------6---------|
Db|--7--7--7-7-7----9--9-9--9-9-9-9----9---------9---------6---------6---------|
Ab|--7--7--7-7-7----9--9-9--9-9-9-9----7---------7---------4---------4---------|
Eb|--5--5--5-5-5----7--7-7--7-7-7-7-------0-0-0-----0-0-0-----0-0-0-----0-0-0--|
                                          P.M--|    P.M--|    P.M--|    P.M--|
  1  Swear I feel  dissection of the whole me when you  leave

   (x1)
eb|----------------------------------------------------------------|
Bb|----------------------------------------------------------------|
Gb|----------------------------------9----------------9------------|
Db|--7--7--7-7-7----9--9-9--9-9-9-9--9--  LET RING  --9-- QUICK  --|
Ab|--7--7--7-7-7----9--9-9--9-9-9-9--7----------------7------------|
Eb|--5--5--5-5-5----7--7-7--7-7-7-7--------------------------------|
  1  Grown to hate  this connection, don't remember
            
Hard to play? Try these video lessons and learn fast. | Correct




comments powered by Disqus
↑ Back to top | Tablatures and chords are parodies/interpretations of the original songs. You may use it for private study, scholarship, research or language learning purposes only