>
 >
Tetsuwan Atomu Astroboy

Tetsuwan Atomu Astroboy Guitar Tabs

Man Or Astro Man - Tetsuwan Atomu Astroboy chords, tabs, tablatures, lyrics

Guitar lessons | Add/correct | Request | Top 50 tabs Artists:  A B C D E F G H I J K L M N O P Q R S T U V W X Y Z 0-9

Tetsuwan Atomu Astroboy Guitar Tabs – Man Or Astro Man

CD, Sheet music, Poster

Do you like Tetsuwan Atomu Astroboy? Share with your friends now
Tabs
Tetsuwan Atomu!
By Man Or Astro-Man?

I Hereby Christen Thee My Robot Son, Astroboy!
Long Live the Music Of The Astro-People!
e-----------------------------------------------------------|-------------------|
b-----------------------------------------------------------|-------------------|
g-----------------------------------------------------------|-------------------|
d--------------------------------------7-7-7-7/9-9----------|-------------------|
a---------7-7-7-7/10-10 ----------------------------6-6-6---|X2-----------------|
E---7-7-7----------------8-8-8-8-7-7-7----------------------|-------------------|

e--------------------------------------------------------------------------------|
b--------------------------------------------------------------------------------|
g--------------------------------------------------------------------------------|
d--------------------------------------------------------------------------------|
a--6-6-6-6-6/7-6-6/7-7-7-7-9/10-10-9/10-10-10-10-10------------------------------|
E---------------------------------------------------7/8-8-7/8-8-8-8-7-7-7-7------|

e--------------------------------------------------------------------------------|
b--------------------------------------------------------------------------------|
g--------------------------------------------------------------------------------|
d--------------------------------------------------------------------------------|
a--------------------------------------------------------------------------------|
E--7/8-8-7-7-10-8-8-7-7-8-5-5-5-5-8-7-7-5-5-5-5-3-3-3-3/5-3-3-3-2-2-2-2-2--------|Slide

e--------------------------------------------------------------------------------|
b--------------------------------------------------------------------------------|
g--------------------------------------------------------------------------------|
d--------------------------------------------------------------------------------|
a--------------------------------------------------------------------------------|
E---7-7-7-7-10-10-3-3-3-3-2-2-12-12-12-12-14-14-6-6-6-6-6-6/7-7-6/7-7-7-7--------|

e-------------------------------------------------------------------------------|
b-------------------------------------------------------------------------------|
g-------------------------------------------------------------------------------|
d-------------------------------------------------------------------------------|
a-------------------------------------------------------------------------------|
E--9/10-10-9/10-10-10-10-2/3-3-2/3-3-2-2-2-2-2/3-3-2-2-5-3-3-2-2-2-2-3-0-0-0-0--|

e-------------------------------------------------------------------------------|
b-------------------------------------------------------------------------------|
g-------------------------------------------------------------------------------|
d-----------------7----------11-------------------------------------------------|
a-----------------5-several--9--several-----------------------------------------|
E--3-3-2-2-0-0------------------------------------------------------------------|

SOLO                               I cant figure out this blasted chord! But same
                                   principal. try some power chords.
e--7--7----------7--------------------------------------------------------------|
b--7--7---7-5------7----7--5-----\?---------------------------------------------|
g--7--7--------7-----7-------7----?---------------------------------------------|
d----------------------------------?--------------------------------------------|
a-----------------------------------?-------------------------------------------|
E------------------------------------?------------------------------------------|
  /\ /\BEND EM GOOD!

e-------------------------------------------------------------------------------------|
b-------------------------------------------------------------------------------------|
g-------------------------------------------------------------------------------------|
d-------------------------------------------------------------------------------------|
a-------------------------------------------------------------------------------------|
E--7-777-7-7-7-7-10-10-10-7-7-7-7--3-3-3-3-3--6-6-6-5-3-3-3--7-7-7-7-10-10-10-9-7-7-7-|

e-------------------------------------------------------------------------------|
b-------------------------------------------------------------------------------|
g-------------------------------------------------------------------------------|
d-------------------------9-9-9--12-12-5-5-5-4-4-14-14-14-16-16-8-8-8-8---------|
a-------------------9-9-9-------------------------------------------------------|
E--12-12-12-12-12---------------------------------------------------------------|
Bend These Notes!
e-----------------------------------------------------------------14--Let-Ring--|
b-----------------------------------------------------------------14------------|
g-----------------------------------------------------------------14------------|
d--8/9-9-8/9-9-9--11/12-12-11/12-12-12------------------------------------------|
a---------------------------------------9/10-10-9/10-10-9-7-5-4-----------------|
E-------------------------------------------------------------------------------|





Comments


Popular Man Or Astro Man tabs & chords
Destination Venus Chords
Complex 3 Tabs
Earth Station Radio Tabs
Eric Estrotic Tabs
Escape Through The Air Vent Fixed Tabs
Escape Velocity 1 Tabs
Inside The Atom Tabs
Munsters Theme Tabs
Super Rocket Rumble Tabs
Transmissions From Venus Tabs


Song lyrics



↑ Back to top | Tablatures and chords are parodies/interpretations of the original songs. You may use it for private study, scholarship, research or language learning purposes only
© 2014 AZChords.com Contact us | Privacy policy | DMCA | Add/correct tabs | Request tabs | Top 50 tabs