» » »

Taco Wagon Tabs (ver.1)

Artists:  A B C D E F G H I J K L M N O P Q R S T U V W X Y Z # 

Taco Wagon Tabs (ver.1)

Man Or Astro Man
Rating:
0/5 (0 votes)

Hard to play? Try these video lessons and learn fast.
                Man...Or Astro-Man?

My all time favorite Dick Dale song by my all time favorite band, I had to tab it!
MAN OR ASTROMAN FREAKIN ROCKS!!!
e-------------------------------------------------------------------------------|
b-------------------------------------------------------------------------------|
g------------------------------999-7-9-7-666-6-7-6-7-999-9-11-9-7-6666----------|
d-------------------------------------------------------------------------------|
a-------------------------------------------------------------------------------|
E----55-0-5-0--55-0-5-0---------------------------------------------------------|

e-------------------------------------------------------------------------------|
b--10101010-9-7777--7--10-9--7--------------------------------------------------|
g--------------------------------99999--7-9-7-6--2/444-4-7-6-4----22-2-2--------|
d-------------------------------------------------------------------2-2---------|
a-------------------------------------------------------------------------------|
E-------------------------------------------------------------------------------|

e-------------------------------------------------------------------------------|
b-------------------------------------------------------------------------------|
g--9-9-9-9-7-9--6-6-6-7-6-7--99-9-11-9-7-9-11-9-7--6666-------------------------|
d-------------------------------------------------------------------------------|
a-------------------------------------------------------------------------------|
E-------------------------------------------------------------------------------|

e-------------------------------------------------------------------------------|
b--10101010-9-7777--7--10-9--7--------------------------------------------------|
g--------------------------------99999--7-9-7-6--2/444-4-7-6-4----22-2-2--------|
d-------------------------------------------------------------------2-2---------|
a-------------------------------------------------------------------------------|
E-------------------------------------------------------------------------------|

e-------------------------------------------------------------------------------|
b-------------------------------10-10-10-10-9-1212121212-14-12-14-12-1010101010-|
g-------------------------------------------------------------------------------|
d--7--6-5--4---4--5---6--7------------------------------------------------------|
a--7--6-5--4---4--5---6--7------------------------------------------------------|
E--5--4-3--2---2--3---4--5------------------------------------------------------|

e-------------------------------------------------------------------------------|
b-------------------------------------10-10-10-10-9-7777777-7-10-9-7------------|
g-9-9-9-9-9--11-13-11-13-11-99999------------------------------------99999------|
d-------------------------------------------------------------------------------|
a-------------------------------------------------------------------------------|
E-------------------------------------------------------------------------------|

e--------------------------------|
b--------------------------------|
g-7-9-7-6-2/4-4-7-6-4-22---2--2--|
d------------------------2--2----|
a--------------------------------|
E--------------------------------|

e-------------------------------------------------------------------------------|
b-------------------------------------------------------------------------------|
g--9-9-9-9-7-9--6-6-6-7-6-7--99-9-11-9-7-9-11-9-7--6666-------------------------|
d-------------------------------------------------------------------------------|
a-------------------------------------------------------------------------------|
E-------------------------------------------------------------------------------|

e-------------------------------------------------------------------------------|
b--10101010-9-7777--7--10-9--7--------------------------------------------------|
g--------------------------------99999--7-9-7-6--2/444-4-7-6-4----22-2-2--------|
d-------------------------------------------------------------------2-2---------|
a-------------------------------------------------------------------------------|
E-------------------------------------------------------------------------------|
            
Hard to play? Try these video lessons and learn fast. | Correct




comments powered by Disqus
↑ Back to top | Tablatures and chords are parodies/interpretations of the original songs. You may use it for private study, scholarship, research or language learning purposes only