» » »

Man Or Astro Man, Pyrex Tabs (ver.1)

Artists:  A B C D E F G H I J K L M N O P Q R S T U V W X Y Z # 

Pyrex Tabs (ver.1)

Man Or Astro Man Tabs
 Rating:
4/5 (4 votes)
Pyrex lessons Tabs too difficult? Try these video lessons and learn fast
1
                Tuning: Drop D
Freakin' sweet. This song rocks. I love playing these MOAM songs at guitar center and ppl
are like wtf... thats awesome...

intro                     part 1
e-------------------------------------------------------------------------------|
b-------------------------------------------------------------------------------|
g-------------------------------------------------------------------------------|
d-------------------------------------------------------------------------------|
a----6--x20-5-5-4-4-3-3----5-5-8-8-7-7-5-5-5-10-10-8-8-7-7-5-5-8-8-7-7-5-5------|
E----6------5-5-4-4-3-3---------------------------------------------------------|

e---------------------------------------------------------------------------------------|
b---------------------------------------------------------------------------------------|
g----------------------------------------------------------------------14-14--12--13-14-|
d----------------------------------------------------------------------12-12--10--11-12-|
a---8-8--8--10--11---5-5-8-8-7-7-5-5-5-10-10-8-8-7-7-5-5-8-8-7-7-5-5---12-12--10--11-12-|
E---8-8--8--10--11----------------------------------------------------------------------|

e------------------------------------------------------------------------------------------------|
b------------------------------------------------------------------------------------------------|
g------------------------------14-14-14--15-15--17------------------------------14-14-14-11-11-13|
d------------------------------12-12-12--13-13--15------------------------------12-12-12-9--9--11|
a------------------------------12-12-12--13-13--15------------------------------12-12-12-9--9--11|
E--0-00000-0-000000-0-000000-------------------------0-00000-0-000000-0-000000-------------------|

e-----------------------------------------------------------------------------------------------|
b-----------------------------------------------------------------------------------------------|
g------------------------------14-14-14--15-15--17------------------------------14-14-14-13-12--|
d------------------------------12-12-12--13-13--15------------------------------12-12-12-11-10--|
a------------------------------12-12-12--13-13--15------------------------------12-12-12-11-10--|
E--0-00000-0-000000-0-000000-------------------------0-00000-0-000000-0-000000------------------|
#Repeat part one and then:
e-------------------------------------------------------------------------------|
b-------------------------------------------------------------------------------|
g-------------------------------------------------------------------------------|
d-------------------------------------------------------------------------------|
a-------------------------------------------------------------------------------|
E---0000000000000000000000000000000000000000------------------------------------|
pm===========================================

e--666666---7777777777-7777777--9-9-9---|
b--777777---8888888888-8888888--101010--|
g--666666---6666666666-7777777--9-9-9---|

e--666666---7777777777-7777777--555-444--|
b--777777---8888888888-8888888--666-555--|
g--666666---6666666666-7777777--555-444--|

e----------------------------------------|
b----------------------------------------|
g----------------------------------------|
d----------------------------------------|
a--12121212121212--101010101010--11--x2--|
E--12121212121212--101010101010--11------|
12 not 1 2           110 not 1

e------------------------------------------------------------------------------------------------|
b------------------------------------------------------------------------------------------------|
g------------------------------14-14-14--15-15--17------------------------------14-14-14-11-11-13|
d------------------------------12-12-12--13-13--15------------------------------12-12-12-9--9--11|
a------------------------------12-12-12--13-13--15------------------------------12-12-12-9--9--11|
E--0-00000-0-000000-0-000000-------------------------0-00000-0-000000-0-000000-------------------|

my version cuts off here i say screw it and end it on an open drop d chord
            
Submit corrections

comments powered by Disqus
↑ Back to top | Man Or Astro Man Tabs for Pyrex. Lyrics for acoustic guitar and electric guitar. 1 Tablatures and chords are parodies/interpretations of the original songs. You may use it for private study, scholarship, research or language learning purposes only