» » »

Man Or Astro Man, Maximum Radiation Level Tabs (ver.1)

Artists:  A B C D E F G H I J K L M N O P Q R S T U V W X Y Z # 

Maximum Radiation Level Tabs (ver.1)

Man Or Astro Man Tabs
 Rating:
4/5 (4 votes)
Maximum Radiation Level lessons Tabs too difficult? Try these video lessons and learn fast
1
                
MAXIMUM RADIATION LEVEL - by Man...or Astro-man? from the album

Intro (hold the tremolo arm while you strike the notes)

|--------------------------------------------------------------------|
|--------------------------------------------------------------------|
|--------------------------------------------------------------------|
|-7-7-----7-7-----7-7-----7-7-----7-7-----7-7-----7-7-----7-7--------|
|-----0-0-----0-0-----0-0-----0-0-----0-0-----0-0-----0-0-----0-0----|
|--------------------------------------------------------------------|
*1 (palm muting throughout)
|--------------------------------------------------------------------|
|--------------------------------------------------------------------|
|--------------------------------------------------------------------|
|--------------------------------------------------------------------|
|-----7--------10\--------------------7--------10\-------------------|
|-5-5---88-8-8-----1-1--1-4-4-3-3-5-5---88-8-8-----1-1--1-6-6-5-5----|

|--------------------------------------------------------------------|
|--------------------------------------------------------------------|
|--------------------------------------------------------------------|
|---------------------------------7-7-7-7-7-7-7-7-7-2-2-2-2-2-2-2----|
|-----7--------10\----------------7-7-7-7-7-7-7-7-7-2-2-2-2-2-2-2----|
|-5-5---88-8-8-----1-1--1-9-9-8-8-5-5-5-5-5-5-5-5-5-0-0-0-0-0-0-0----|
                                  ^end palm muting
*2
|--------------------------------------------------------------------|
|--------------------------------------------------------------------|
|--------------------------------------------------------------------|
|--------------------------------------------------------------------|
|--------------------------------------------------------------------|
|-5-5-5-5-8-8-8-8-1-1-1-1-4-4-3-3-5-5-5-5-8-8-8-8-1-1-1-1-6-6-5-5----|

|---------------------------------------------------------------------|
|---------------------------------------------------------------------|
|---------------------------------------------------------------------|
|---------------------------------------------------------------------|
|---------------------------------------------------------------------|
|-5-5-5-5-8-8-8-8-1-1-1-1-9-9-8-8-5--5--5--5--5--5--5---0-0-0-0-0-0-0-|

|--------------------------------------------------------------------|
|--------------------------------------------------------------------|
|-2-2-2-2-2-2-2-2-2-2-2-2-2-2-2-2------------------------------------|
|-2-2-2-2-2-2-2-2-2-2-2-2-2-2-2-2------------------------------------|
|-0-0-0-0-0-0-0-0-0-0-0-0-0-0-0-0------------------------------------|
|--------------------------------------------------------------------|
*3
|--------------------------------------------------------------------|
|--------------------------------------------------------------------|
|-9--9--9--7--8--8-8-8-8-8-8-8-8-------------------------------------|
|-9--9--9--7--8--8-8-8-8-8-8-8-8--10-10-10-9--7--/20-----------------|
|-7--7--7--5--6--6-6-6-6-6-6-6-6--10-10-10-9--7----------------------|
|---------------------------------8--8--8--7--5------20\-------------|

|--------------------------------------------------------------------|
|--------------------------------------------------------------------|
|-9--9--9--7--8--8-8-8-8-8-8-8-8--12-12-12-11-9----------------------|
|-9--9--9--7--8--8-8-8-8-8-8-8-8--12-12-12-11-9--/20-----------------|
|-7--7--7--5--6--6-6-6-6-6-6-6-6--10-10-10-9--7----------------------|
|----------------------------------------------------20\-------------|

|--------------------------------------------------------------------|
|--------------------------------------------------------------------|
|-9--9--9--7--8--8-8-8-8-8-8-8-8-------------------------------------|
|-9--9--9--7--8--8-8-8-8-8-8-8-8--10-10-10-9--7--/20-----------------|
|-7--7--7--5--6--6-6-6-6-6-6-6-6--10-10-10-9--7----------------------|
|---------------------------------8--8--8--7--5------20\-------------|

|--------------------------------------------------------------------|
|--------------------------------------------------------------------|
|-9--9--9--7--8--8-8-8-8-8-8-8-8--17-17-17-16-14-X-X-X-X-X-X-X-------|
|-9--9--9--7--8--8-8-8-8-8-8-8-8--17-17-17-16-14-X-X-X-X-X-X-X-------|
|-7--7--7--5--6--6-6-6-6-6-6-6-6--15-15-15-14-12-X-X-X-X-X-X-X-------|
|------------------------------------------------X-X-X-X-X-X-X....---|

The following "solo" is done by striking muted strings while using a
digital delay pedal set to a very fast sustained echo.  Starcrunch
uses a blue Digitech 2-pedaled unit with a 2-second memory.  Change
the pitch of the muted strings by running your left hand close to the
bridge and back again.

Repeat *1

Repeat *3
            
Submit corrections

comments powered by Disqus
↑ Back to top | Man Or Astro Man Tabs for Maximum Radiation Level. Lyrics for acoustic guitar and electric guitar. 1 Tablatures and chords are parodies/interpretations of the original songs. You may use it for private study, scholarship, research or language learning purposes only