>
 >
Manta Ray

Manta Ray Guitar Tabs

Man Or Astro Man - Manta Ray chords, tabs, tablatures, lyrics

Guitar lessons | Add/correct | Request | Top 50 tabs Artists:  A B C D E F G H I J K L M N O P Q R S T U V W X Y Z 0-9

Manta Ray Guitar Tabs – Man Or Astro Man

CD, Sheet music, Poster

Do you like Manta Ray? Share with your friends now
Tabs
Man or Astro-Man?

Bass line- PLay at Your Own Risk! LoL
Dudes, Listen to the rythm on this cuz im not gonna go apesh** on perfection timing
e-------------------------------------------------------------------------------|
b-------------------------------------------------------------------------------|
g-------------------------------------------------------------------------------|
d-------------------------------------------------------------------------------|
a-------------------------------------------------------------------------------|
E---3333333--8888-3333333-------------------------------------------------------|

e-------------------------------------------------------------------------------|
b-------------------------------------------------------------------------------|
g-------------------------------------------------------------------------------|
d-------------------------------------------------------------------------------|
a--10-10-10--4-4-4--5-5-5-5--10-10-10-10-4-4-4-4-5-5-5-5------------------------|
E--8--8--8---2-2-2--3-3-3-3---8--8--8--8-2-2-2-2-3-3-3-3------------------------|

e-------------------------------------------------------------------------------|
b-------------------------------------------------------------------------------|
g-------------------------------------------------------------------------------|
d-------------------------------------------------------------------------------|
a----5-5-5-5--10-10-10-10-4-4-4-4---9~--10-10-10--12-12-13-13--14/7-------------|
E----3-3-3-3---8--8--8--8-2-2-2-2---7----8--8-8---10-10-11-11--12/5-------------|

e-------------------------------------------------------------------------------|
b-------------------------------------------------------------------------------|
g-------------------------------------------------------------------------------|
d-------------------------------------------------------------------------------|
a-5-5-5-5--10-10-10-10-4-4-4-4-5-5-5-5------------------------------------------|
E-3-3-3-3---8--8--8--8-2-2-2-2-3-3-3-3------------------------------------------|

Grab the whammy bar and bend around while you pick!
Signature Starcrunch!
e--15-15-15-15-15-15-15-15--------------------------------------------------------|
b--16-16-16-16-16-16-16-16--------then-|---12-12-12-12-12-12--17-17-17--11-11-11--| X2
g--15-16-16-16-16-16-16-16-------------|---12-12-12-12-12-12--17-17-17--11-11-11--|
d---------------------------------------------------------------------------------|
a---------------------------------------------------------------------------------|
E---------------------------------------------------------------------------------|
Then figure out the order if you love the song so much! Haha

final solo thing is like
e-------------------------------------------------------------------------------|
b-12-12-12-12-12-12--10-12-10-12-10-12-10-10-12---------------------------------|
g-12-12-12-12-12-12--12-12-12-12-12-12-12-12-12---------------------------------|
d-------------------------------------------------------------------------------|
a-------------------------------------------------------------------------------|
E-------------------------------------------------------------------------------|
You can figure out how to do this last part. I just know you can! If you can thats pretty
sweet!

Rock on dudes! Man or Astro-Man is the best evar!





Comments


Popular Man Or Astro Man tabs & chords
Eric Estrotic Tabs
Guargantuas Last Stand Tabs
Nitrous Burn Out Tabs
Nitrous Burn Out 1 Tabs
Put Your Finger In The Socket 1 Tabs
Sferic Waves Tabs
Special Agent Conrad Uno 1 Tabs
Test Driver 1 Tabs
The Sound Waves Reversing Tabs
Transmissions From Venus Tabs


Song lyrics



↑ Back to top | Tablatures and chords are parodies/interpretations of the original songs. You may use it for private study, scholarship, research or language learning purposes only
© 2014 AZChords.com Contact us | Privacy policy | DMCA | Add/correct tabs | Request tabs | Top 50 tabs