» » »

Man Or Astro Man, Like A Giant Microwave Tabs (ver.1)

Artists:  A B C D E F G H I J K L M N O P Q R S T U V W X Y Z # 

Like A Giant Microwave Tabs (ver.1)

Man Or Astro Man Tabs
 Rating:
4/5 (4 votes)
Like A Giant Microwave lessons Tabs too difficult? Try these video lessons and learn fast
                Man Or Astro-Man?
Like a Giant microwave
"Oooo Spooky!"
Drop D
*1                                         palm mute
e-------------------------------------------------------------------------------|
b-------------------------------------------------------------------------------|
g-----------------------------------------------------------------|-------------|
d-----------------------------------------00ten0007800ten007800ten|-77777-------|
a-----------------------------------------------------------------|-55555-------|
E---0-00-00-00-0000-0000-00-0-0-0--00-0-0-------------------------|-------------|
*2
e-------------------------------------------------------------------------------|
b-------------------------------------------------------------------------------|
g-------------------------------------------------------------------------------|
d--------------------------------------11/12/11/12/-----------------------------|
a--->>8--8---8-5---5--3--3-3--3/5-5---------------------------------------------|
E-------------------------------------------------------------------------------|

e-------------------------------------------------------------------------------|
b-------------------------------------------------------------------------------|
g-------------------------------------------------------------------------------|
d-------------------------------------11/12/11/12/---10/11/10/11/---------------|
a-->>8--8---8-5---5--3--3-3--3/5-5----------------------------------------------|
E-------------------------------------------------------------------------------|

*3
e-------------------------------------------------------------------------------|
b-------------------------------------------------------------------------------|
g-------------------------------------------------------------------------------|
d--------------------------------------12-12-12-12--12-12-12-12-12--------------|
a--->>8--8--8-10--11-11-11-11-11-10-8--11-11-11-11--10-10-10-10-10--------------|
E-------------------------------------------------------------------------------|

e-------------------------------------------------------------------------------|
b-------------------------------------------------------------------------------|
g-------------------------------------------------------------------------------|
d------------------------------------12--12-12-12--15-15-15---------------------|
a---->>8--8---8-5---5--3--3-3--3/5-5-10--10-10-10--13-33-13---------------------|
E-------------------------------------------------------------------------------|

e-------------------------------------------------------------------------------|
b-------------------------------------------------------------------------------|
g-------------------------------------------------------------------------------|
d--------------------------------------12121212--12-12-12-12-12-----------------|
a--->>8--8--8-10--11-11-11-11-11-10-8--11111111--10-10-10-10-10-----------------|
E-------------------------------------------------------------------------------|

e-------------------------------------------------------------------------------|
b-------------------------------------------------------------------------------|
g-------------------------------------------------------------------------------|
d-------------------------------------13-13-13-13-12-12-12-12-10-10-10-10-10----|
a--->>8--8---8-5---5--3--3-3--3/5-5---11-11-11-11-10-10-10-10--8--8--8--8--8----|
E-------------------------------------------------------------------------------|

e-------------------------------------------------------------------------------|
b-------------------------------------------------------------------------------|
g-----------------------------------------------------------------|-------------|
d-----------------------------------------00ten0007800ten007800ten|-------------|
a-----------------------------------------------------------------|-------------|
E---0-00-00-00-0000-0000-00-0-0-0--00-0-0-------------------------|-------------|

e-------------------------------------------------------------------------------|
b-------------------------------------------------------------------------------|
g-------------------------------------------------------------------------------|
d-------------------------------------------------------------------------------|
a-------------------------------------------------------------------------------|
E--12-12-12-12121212-12-12-12-12-12-12-12 ect-----0000000000000000--------------|

e-------------------------------------TRICKLES!!!-------------------------------|
b-------------------------------------------------------------------------------|
g-------------------------------------------------------------------------------|
d-------------------------------------------------------------------------------|
a--->>8--8---8-5---5--3--3-3--3/5-5---------------------------------------------|
E-------------------------------------------------------------------------------|

e-------------------------------------------------------------------------------|
b-------------------------------------------------------------------------------|
g-------------------------------------------------------------------------------|
d-------------------------------------11/12/11/12/---10/11/10/11/---------------|
a-->>8--8---8-5---5--3--3-3--3/5-5----------------------------------------------|
E-------------------------------------------------------------------------------|

e--------------------------------------------------------------------------------|
b--------------------------------------------------------------------------------|
g--------------------------------------------------------------------------------|
d----------------------------------------11/12/11/12/---10/11/10/11/-------------|
a--->>8--8--8-10--11-11-11-11-11-10-8--------------------------------------------|
E--------------------------------------------------------------------------------|

e-------------------------------------------------------------------------------|
b-------------------------------------------------------------------------------|
g-------------------------------------------------------------------------------|
d-------------------------------------------------------------------------------|
a--->>8--8---8-5---5--3--3-3--3/5-5---------------------------------------------|
E----------------------------------------6-6-666-5-5-5-3-3-0~~~-----------------|
            
Submit corrections

comments powered by Disqus
↑ Back to top | Man Or Astro Man Tabs for Like A Giant Microwave. Lyrics for acoustic guitar and electric guitar. Tablatures and chords are parodies/interpretations of the original songs. You may use it for private study, scholarship, research or language learning purposes only