» » »

Man Or Astro Man, Illidium Q-36 Bass tabs (ver.1)

Artists:  A B C D E F G H I J K L M N O P Q R S T U V W X Y Z # 

Illidium Q-36 Bass tabs (ver.1)

Man Or Astro Man Tabs
 Rating:
4/5 (4 votes)
Illidium Q-36 lessons Tabs too difficult? Try these video lessons and learn fast
                
Part 1


G|---------------------------|
D|------2-2-2-2--------------|	Repeat 5 times
A|-0--0---------0--0-1h2-1h2-|
E|---------------------------|

Part 2

G|------------------------------|
D|------2-2-2-2------2-1--------|
A|-0--0---------0--0-----5-4-0--|
E|------------------------------|

Repeat Part 1   Twice

Repeat Part 2   Once

Part 3

G|------------------------------|
D|------2-1-----------2-1-------|
A|-0--0-----5-4-0--0------5-4-0-|
E|------------------------------|

Part 4

G|-----------------|
D|-----------------|  Repeat 3 times
A|0000000000000000-|
E|-----------------|
  4 beats of 16th notes

Part 5

G|------------------------|
D|------------2-1---------|
A|00000000000-----5-4-0---|
E|------------------------|

Repeat Part 1    3 times

Repeat Part 3    Once
            
Submit corrections

comments powered by Disqus
↑ Back to top | Man Or Astro Man Bass for Illidium Q-36. Lyrics for acoustic guitar and electric guitar. Tablatures and chords are parodies/interpretations of the original songs. You may use it for private study, scholarship, research or language learning purposes only