» » »

Eric Estrotica Tabs (ver.1)

Artists:  A B C D E F G H I J K L M N O P Q R S T U V W X Y Z # 

Eric Estrotica Tabs (ver.1)

Man Or Astro Man
Rating:
0/5 (0 votes)

Hard to play? Try these video lessons and learn fast.
                

Notes:

This is a cool example of Star Crunch's rhythmic style and his
use of dissonance to create that feeling of tension. Because it
would be extremely tedious and error prone I can't tab each and
every note in the chord/double stop parts. I can only sketch out
the rhythms.


Intro (rhythm not shown):
------------------------------------------------------------------|
------------------------------------------------------------------|
------------------------------------------------------------------|
------------------------------------------------------------------|
--7-7-...-7-------------------------------------------------------|
--0-0-...-0-------------------------------------------------------|

Main Riff (exact notes are shown here):
|-------------------------------------|---------------------------|
|-------------------------------------|---------------------------|
|-4-----------------------------------|---------------------------|
|----5--4--5-4---4--------------------|---repeat------------------|
|--------------5---5-3---slide-up--7--|---------------------------|
|----------------------------------0--|---------------------------|

The exact number of each note is not displayed here, nor is the
exact rhythm shown (5/7 means hit on 5 then slide up to 7):
|-----------------------------------------------------------------|r
|-----------------------------------------------------------------|e
|-----------------------------------------------------------------|p
|-----4-4-4-4-----5-5-5-5-------------5---------4-----------------|e
|-3-3---------3-3---------------5/7-7---7---3-3---3--3-3-3-3-3----|a
|-----------------------------------------------------------------|t

Again, exact number of notes and rhythm is not displayed, just listen
to the recording to get the feel down:
-------------------------------------------------------------------|
-------------------------------------------------------------------|
-------------------------------------------------------------------|
-2-2...-2--4-4...-4--5-5-5-5-5-...-----4-4...-4--5-5...-5--7-7...7-|
-3-3...-3--3-3...-3--3-3-3-3-3-...-----5-5...-5--5-5...-5--5-5...5-|
-------------------------------------------------------------------|

More to come....



ERIC ESTROTICA - by Man...or Astro-Man?
==== =========   available on the album "Is It...Man...or Astro-man?"

Intro

|-------------------------------------------------------------------|
|-------------------------------------------------------------------|
|-------------------------------------------------------------------|
|-------------------------------------------------------------------|
|-------------------------------------------------------------------|
|-0--0-0-0--0-0-0--0--0-0-0--0-0-0...-------------------------------|

*1

|-------------------------------------------------------------------|
|-------------------------------------------------------------------|
|-4-----------------------------------------------------------------|
|---5-4--5-4---4-5--------------------------------------------------|
|------------5-----3--3-3-3-/7\-------------------------------------|
|--------------------------------0-0--0-0-0--0--0-0--0-0-0----------|
                                                          ^repeat
*2

|-------------------------------------------------------------------|
|-------------------------------------------------------------------|
|-------------------------------------------------------------------|
|-------------------------------------------------------------------|
|-------------------------------------------------------------------|
|-------------------------------------------------------------------|
            
Hard to play? Try these video lessons and learn fast. | Correct




comments powered by Disqus
↑ Back to top | Tablatures and chords are parodies/interpretations of the original songs. You may use it for private study, scholarship, research or language learning purposes only