» » »

Man Or Astro Man, Earth Station Radio Tabs (ver.1)

Artists:  A B C D E F G H I J K L M N O P Q R S T U V W X Y Z # 

Earth Station Radio Tabs (ver.1)

Man Or Astro Man Tabs
Rating:
0/5 (0 votes)
Earth Station Radio lessons Tabs too difficult? Try these video lessons and learn fast
                By Man Or Astro-Man?
note: watch heads turn playing this one at guitar center ;)

"Apparently theyve been recording our broadcasts..."

part one(Intro)     Part 2
e------------------|--------------------------------------------------------------|
b------------------|--------------------------------------------------------------|
g------------------|--------------------------------------------------------------|
d------------------|--------------------------------------------------------------|
a--1212121212//////|--0-3-0-2-0--0-3-0-2-0-0-2-----------0-3-0-2-0--0-3-0-2-0-0-2-|
E------------------|----------------------------1111111---------------------------|

e----------------------------------------------------------------------------------|
b----------------------------------------------------------------------------------|
g----------------------------------------------------------------------------------|
d------------------------------------------------------------------3-3-2-----------|
a---------------0-3-0-2-0--0-3-0-2-0-0-2-----------------0-3-0-2-2-------3-3-2-3-2-|
E-333333-00000----------------------------111111-000000----------------------------|
          part three                                part 4
e--------|-----------------------------------------|---------------------------------|
b-2-2-2-2|-----------------2----------2~-----------|---------------------------------|
g-2-2-2-2|-----------------2----------2~-----------|-------------2-4-2---2-4---------|
d-2-2-2-2|-----------------2----------2~-----------|-----2-3-3-3-------3-----2-2-2-2-|
a--------|--2-----------------------------2--------|--3------------------------------|
E--------|--0 (Whammy Dive)--0-(Dive)-----0 (Dive)-|---------------------------------|

e-------------------------------------------------------------------------------|
b-------------------------------------------------------------------------------|
g--5-5-5-4-2-2-2----------------------------------------------------------------|
d-----------------3-3-2-3-2-2---2-3---------------------------------------------|
a-----------------------------3------0-0-0-0-0-3-3-3-0-0------------------------|
E-------------------------------------------------------------------------------|

e=------------------------------------------------------------------------------|
b=------------------------------------------------------------------------------|
g=-------------2-4-2---2-4----------5-5-5-4-2-2-2-----------------------------2-|
d=-----2-3-3-3-------3-----2-2-2-2-------------------------------3--2-3-2-----2-|
a=--3----------------------------------------------------3-0-0-----------3-0-0--|
E=--------------------------------------------------1-00------------------------|

         part 5
e-------|-----------------------------------------------|-----------------------|
b-------|-----------------------------------------------|-----------------------|
g--2--2-|--2-2---5-------------2~---2---7--5-4----------|-----------------------|
d--2--2-|--2-2---5--3--3~-3----2~---2---7--5-4--3---3--3|----3-3----------------|
a--0--0-|--0-0---3--3--3~-3----2----0---5--3-2--3---3--3|X2--3-3----------------|
E-------|-----------1--1~-1---------------------1---1--1|----1-1----------------|

e-------------------------------------------------------------------------------|
b-------------------------------------------------------------------------------|
g-------------------------------------------------------------------------------|
d-------------------------------------------------------------------------------|
a---77777778888887777777888888877777788888888///////slide-----------------------|
E-------------------------------------------------------------------------------|

*Part two, Part 4, then this is part 5
e--------------------------------------------------------------------------------|
b--------------------------------------------------------------------------------|
g-----------------------2----~---------------------------------------------------|
d-------------3-2-3-----2----333222-888777--/--15--14-15-14----14----------------|
a-------3-0-0-------3-0-0------------------------=----------------15-------------|
E-1-0-0--------------------------------------------------------------------------|

Enjoy! -TheDj
            
Submit corrections

comments powered by Disqus
↑ Back to top | Man Or Astro Man Tabs for Earth Station Radio. Lyrics for acoustic guitar and electric guitar. Tablatures and chords are parodies/interpretations of the original songs. You may use it for private study, scholarship, research or language learning purposes only