» » »

Dni Tabs (ver.1)

Artists:  A B C D E F G H I J K L M N O P Q R S T U V W X Y Z # 

Dni Tabs (ver.1)

Man Or Astro Man
Rating:
0/5 (0 votes)

Hard to play? Try these video lessons and learn fast.
                #


DNI - by Man...or Astro-Man? from the album Experiment Zero
===

Intro (palm muting throughout)

|-------------------------------------------------------------------
|-------------------------------------------------------------------
|-------------------------------------------------------------------
|-------------------------------------------------------------------
|-------------------------------------------------------------------
|-6-6-5-5-4-4-3-3-6-6-5-5-4-4-3-3-6-6-5-5-4-4-3-3-6-6-5-5-4-4-3-3---

*1 (palm muting throughout)

|------------------|---------------------------------|-----------------
|-----0------------|---------------------------------|-----0-----------
|--------------3-2-|-0-0-2-2-0-0-3-3-0-0-4-4-0-0-5-5-|--------------3-2
|-2-2---22-222-----|---------------------------------|-2-2---22-222----
|------------------|---------------------------------|-----------------...
|------------------|---------------------------------|-----------------

*2
                                           ~~~~
|-----------------------------------------0-------------------------
|-----------------------------------------0-------------------------
|-----------------------------------------1-------------------------
|-----------------------------------------2-------------------------
|-1-1-1-1-1-1-1-1-0-0-0-0-0-0-0-0-3-3-3-3-2-------------------------
|-----------------------------------------0-------------------------

|---------|------------------|--------------------------------------
|---------|------------------|--------------------------------------
|---------|------------------|--------------------------------------
|---------|------------------|--------------------------------------
|---------|------------------|-----0-0-----1-1-----2-2-----3-3------
|-0-0-0-0-|-0-0-7-00-000-6-5-|-3-3-----3-3-----3-3-----3-3----------

                                           ~~~~~~
|-----------------------------------------0-------------------------
|-----------------------------------------0-------------------------
|-----------------------------------------1-------------------------
|-----------------------------------------2-------------------------
|-1-1-1-1-1-1-1-1-0-0-0-0-0-0-0-0-3-3-3-3-2-------------------------
|-----------------------------------------0-------------------------

                                      ~~~~~
|-----------------------------------0-------------------------------
|-----------------------------------0------9\\\---------------------
|-----------------------------------1------9\\\---------------------
|-----------------------------------2-------------------------------
|-----------------------------------2-------------------------------
|-3-3-3-3-3-3-3-3-6-6-6-6-6-6-5-5/--0------------0-0-0-0------------

                                      ~~~~~
|-----------------------------------0-------------------------------
|-----------------------------------0------9\\\---------------------
|-----------------------------------1------9\\\---------------------
|-----------------------------------2-------------------------------
|-----------------------------------2-------------------------------
|-3-3-3-3-3-3-3-3-8-8-8-8-10-10-8---0------------0-0-0-0------------

                                     ~~~~~~
|-----------------------------------0-------------------------------
|-----------------------------------0------9\\\---------------------
|-----------------------------------1------9\\\---------------------
|-----------------------------------2-------------------------------
|-----------------------------------2-------------------------------
|-3-3-3-3-3-3-3-3-2-2-2-2-3-3-3-2---0------------0-0-0-0------------

|-------------------------------------------------------------------
|-------------------------------------------------------------------
|-----------------------------------9-------------------------------
|-----------------------------------9-------------------------------
|-2-2-2-2-2-2-2-2-3-3-3-3-5-5-5-5---7-------------------------------
|-----------------------------------0-----0-0-0-0-------------------
                                                ^dive down
*3
                                    ~~~
|--------------------------------/12--------------------------------
|--------------------------------/12--------------------------------
|-3--3--3-2-0--3--3--3-3-2-0-----/12--------------------------------
|----------------------------2~~------------------------------------
|-------------------------------------------------------------------
|-------------------------------------------------------------------
                                       ^repeat
                                                   ~~~
|-------------------------------------------------0-----------------
|-12^~~-------12^~~-------12^~~-------12^~~-------0-----------------
|-------------------------------------------------1-----------------
|-------14-14-------14-14-------14-14-------14-14-2-----------------
|-------------------------------------------------2-----------------
|-------------------------------------------------0----/12-12-12-12-12\
    ^grab that tremolo arm and yank it around!
                                                   ~~~  ~~
|-------------------------------------------------0----0------------
|-12^~~-------12^~~-------12^~~----12^~~----------0----0------------
|-------------------------------------------------1----1------------
|-------14-14-------14-14-------14-------14-14-14-2----2------------
|-------------------------------------------------2----2------------
|-------------------------------------------------0---------0-------
                                                             ^dive
Repeat *1 and *2

End Riff

|-------------------------------------------------------------------
|-------------------------------------------------------------------
|-------------------------------------------------------------------
|-------------------------------------------------------------------
|-------------------------------------------------------------------
|-6-6-5-5-4-4-3-3-6-6-5-5-4-4-3-3-6-6-5-5-4-4-3-3-6-6-5-5-4-4-3-3-0-
            
Hard to play? Try these video lessons and learn fast. | Correct




comments powered by Disqus
↑ Back to top | Tablatures and chords are parodies/interpretations of the original songs. You may use it for private study, scholarship, research or language learning purposes only