>
 >
Deuces Wild

Deuces Wild Guitar Tabs

Man Or Astro Man - Deuces Wild chords, tabs, tablatures, lyrics

Guitar lessons | Add/correct | Request | Top 50 tabs Artists:  A B C D E F G H I J K L M N O P Q R S T U V W X Y Z 0-9

Deuces Wild Guitar Tabs – Man Or Astro Man

CD, Sheet music, Poster

Do you like Deuces Wild? Share with your friends now
Tabs
Man or Astro-Man?
Cover of Link wrays original song

Intro Riff!
e----------------------|----5-5-5---7-7--10-7-----------------------------------|
b--2-----------------2-|----5-5-5---7-7--10-7--3-1-3-3-1-3-1--------------------|
g--2-----------------2-|-------------------------------------2-0-2----0-2-2-----|
d--2---7-------------2-|--------------------------------------------2-----------|
a------5---3--5--3-----|--------------------------------------------------------|
E----------------------|--------------------------------------------------------|

e-------------------------------------------------------------------------------|
b--xx-----------7----------------------2-2-----------------------2--------------|
g--xx-7--7-5-7--7--7-5-7--5-2-0-2------2-2------7~---------------2--------------|
d------------------------------------2-2-2------7~---------------2--------------|
a---------------------------------------------5-5~------------------------------|
E----------------------------------------------------0-0-3-0-3-0----------------|

e-------------------------|--------------------------|---------------------------|
b-------------------------|--2------------2---------2|---------------------------|
g-9-9-9-12-9-7-7-7-10-10-7|--2------------2---------2|---------------------------|
d-------------------------|--2---7--------2---------2|x3---------5---------------|
a-------------------------|------5--3-5-3------------|----7-7-7----7-5-5-5-8-8-5-|
E-------------------------|-------------------0-3-0--|---------------------------|

e---|-------------------|-------------------------------------|-----------------|
b-2-|-------------------|-------------------------------------|-----------------|
g-2-|-------------------|-------------5-5-7-5---------5---5---|-----------------|
d-2-|------------5-5-7-5|X4-------7-7-------------7-7---7---7-|---------5-5-7-5-|
a---|-------7-7---------|-----5-5-------------5-5-------------|-----7-7---------| X2
E---|--5-5--------------|-------------------------------------|-5-5-------------|
                              !~(-~SoLo~-)~! Not for the feint of heart! :)
e------------------------------|--9---9--9---8--9--9---9--9--9------------------|
b---------------------------2~-|--10--10-10--8-10-10--10-10-10------------------|
g--9-9-9-7-9-9-7-7-7-5-7-7--2~-|--------------------------------7--5------------|
d---------------------------2~-|--------------------------------------7---------|
a------------------------------|------------------------------------------------|
E------------------------------|------------------------------------------------|

e-9--9--9---8--9--9--9--8---9-9-9-----------------------------------------------|
b-10-10-10--8--10-10-10-8---101010----------------------------------------------|
g-----------------------------------7-5---------5-7/8/7------5--7-7-5-----------|
d---------------------------------------7---7-7----------7-7----------7---------|
a-------------------------------------------------------------------------------|
E-------------------------------------------------------------------------------|
 Bendy Tremolo!
e---------------------------------10-11-9-11-9----------------------------------|
b-10-10-10-10---------------10-12---------------10-8-10-10-10-10-10-------------|
g-9--9--9--9----9-9-9-12-12-----------------------------------------------------|
d-------------------------------------------------------------------------------|
a-------------------------------------------------------------------------------|
E-------------------------------------------------------------------------------|

e-------------------------------------------------------------------------------|
b--2--------------2-------------------------------------------------------------|
g--2--------------2-------------------------------------------------------------|
d--2---7----------2-------------------------------------------------------------|
a------5-3-5-3------------------------------------------------------------------|
E-------------------------------------------------------------------------------|





Comments


Popular Man Or Astro Man tabs & chords
24 Hours Tabs
9 Volt 1 Tabs
Alien Visitors 1 Tabs
Eric Estrotica Tabs
Evil Plans Of Planet Spectra Tabs
Like A Giant Microwave Tabs
Mermaid Love 1 Tabs
Munsters Theme Tabs
Taco Wagon Tabs
The Sound Waves Reversing Tabs


Song lyrics



↑ Back to top | Tablatures and chords are parodies/interpretations of the original songs. You may use it for private study, scholarship, research or language learning purposes only
© 2014 AZChords.com Contact us | Privacy policy | DMCA | Add/correct tabs | Request tabs | Top 50 tabs