» » »

24 Hours Tabs (ver.1)

Artists:  A B C D E F G H I J K L M N O P Q R S T U V W X Y Z # 

24 Hours Tabs (ver.1)

Man Or Astro Man
Rating:
0/5 (0 votes)

Hard to play? Try these video lessons and learn fast.
                "24 Hours"

    Listen to the song carefully for the correct rhythm

   "I don't have six months..I don't have six days..."

         Intro
      |---------------------------------|
      |---------------------------------|
      |---------------------------------|
      |---------------------------------|
      |---------------------------------|
      |-4-5-4-5-5-5-5---4-5-4-5-5-5-5-5-|
         Part 1
      |------------------------------------------------|R
      |------------------------------------------------|E
      |------------------------------------------------|P
      |-----2----------------2-------------------------|E
      |-0-3---2-2-3------0-3---2---2-3-2-3-2-3-2-------|A
      |-------------2---2------------------------------|T
         Part 2
      |--------------------------------------------|R
      |--------------------------------------------|E
      |--------------------------------------------|P
      |---2-1-2-----2-1-2-----2-1-2-3-3-3-3-3-2-1--|E
      |-2---------2---------2----------------------|A
      |--------------------------------------------|T
 *NOTE* there is a second guitar playing a high E chord on part 2
        .....I think it's an E chord at least.
         Part 3
   |----------------------------------------------|R
   |-5-5-5-5-6-6-6-6-7-7-7-7-6-6-5-5-5-5-4-5-4-5--|E etc..etc
   |----------------------------------------------|P
   |----------------------------------------------|E
   |----------------------------------------------|A
   |----------------------------------------------|T
      I'm not EVEN gonna tab every note of this.
   You'll get the idea if you've actually heard the song.
       Part 4 (A continuation of 3!)
   |-5-5-5-5-6-6-6-6-7-7-7-7-6-6-5-5-5-5-4-5-4-5-|
   |---------------------------------------------|
   |---------------------------------------------|
   |---------------------------------------------|
   |---------------------------------------------|
   |---------------------------------------------|

    Play part 4 once, then back into part 3

    Now go back into part 2

    Mess around with the following two chords

        |--------------|
        |--------------|
        |-3--4---------|
        |-3--4---------|
        |-1--2---------|
        |--------------|

    "suddenly I knew I was going to die"

   Back into part 1, then part 2 end on B chord

             And thats it!

   End with a "Big rock and roll finish"


   Tabbed 2001 on luna base alpha
   Please ask permission before using on a site


   (cheap advertisement) ;)
            
Hard to play? Try these video lessons and learn fast. | Correct




comments powered by Disqus
↑ Back to top | Tablatures and chords are parodies/interpretations of the original songs. You may use it for private study, scholarship, research or language learning purposes only