» » »

The Sound Waves Reversing Tabs (ver.1)

Artists:  A B C D E F G H I J K L M N O P Q R S T U V W X Y Z # 

The Sound Waves Reversing Tabs (ver.1)

Man Or Astro-man
Rating:
0/5 (0 votes)

Hard to play? Try these video lessons and learn fast.
                
THE SOUND WAVES, REVERSING - by Man...or Astro-man? from
=== ===== =====  =========   the 7" UFOs And The Men Who Fly Them

*1

|------------------------------------------------------------------|
|------------------------------------------------------------------|
|------------------------------------------------------------------|
|------------------------------------------------------------------|
|-7-7-7---------------------7-7-7----------------------------------|
|-------0--0-0-7-7-7-0--0-0-------0--0-0-7-7-7-0--0-0--------------|

*2

|------------------------------------------------------------------|
|------------------------------------------------------------------|
|------------------------------------------------------------------|
|------------10-9-----9-------11-----------------------------------|
|-7--7-7-7-7-------10---10/12----12--------------------------------|
|-----------------------------------8-8-8-8-8-8-8-8/15\------------|

|------------------------------------------------------------------|
|------------------------------------------------------------------|
|------------------------------------------------------------------|
|------------10-9-----9-------11-------12----12-----------12----12-|
|-7--7-7-7-7-------10---10/12----12-13----13----13--12h13----13----|13
|------------------------------------------------------------------|

|------------------------------------------------------------------|
|------------------------------------------------------------------|
|------------------------------------------------------------------|
|------------10-9-------------10-9-----9-----9---------------------|
|-7--7-7-7-7-------7--7-7-7-7------10----10----10-9--10-9--10-9----|
|------------------------------------------------------------------|

|------------------------------------------------------------------|
|------------------------------------------------------------------|
|------------------------------------------------------------------|
|-----------------9-10-9-(0)---------------------------------------|
|-7--7-7-7-7-9-10------------9-10-9-7-7-7-7------------------------|
|-------------------------------------------0-0-0-0-0-0-0-0--------|

*3
  pm----------------------------------------------------------------|
|---------------------------------0--0---0--0-----------------------|
|---------------------------------0--0---0--0-----------------------|
|---------------------------------1--1---1--1-----------------------|
|---------------------------------2--2---2--2-----------------------|
|---------------------------------2--2---2--2-----------------------|
|-6-6-5-5-8-8-7-7-6-6-5-5-8-8-7-7-0--0---0--0-----------------------|
                                             ^repeat
  pm-----------------------------|             pm-------------------|..
|---------------------------------0--0---0--0-----------------------|
|---------------------------------0--0---0--0-----------------------|
|---------------------------------1--1---1--1-----------------------|
|---------------------------------2--2---2--2-----------------------|
|---------------------------------2--2---2--2-----------------------|
|-3-3-2-2-5-5-4-4-3-3-2-2-5-5-4-4-0--0---0--0--3-3-2-2-5-5-4-4-3-3--|

  pm----------------------------------------------------------------|
|-------------------------------------------------------------------|
|-------------------------------------------------------------------|
|-------------------------------------------------------------------|
|-------------------------------------------------------------------|
|-------------------------------------------------------------------|
|-2-2-5-5-4-4-5h6-6-5h6-6-5h6-5h6-6-5h6-6-5-0-----------------------|

Repeat song
            
Hard to play? Try these video lessons and learn fast. | Correct




comments powered by Disqus
↑ Back to top | Tablatures and chords are parodies/interpretations of the original songs. You may use it for private study, scholarship, research or language learning purposes only