» » »

Man Or Astro-man, Defcon Tabs (ver.1)

Artists:  A B C D E F G H I J K L M N O P Q R S T U V W X Y Z # 

Defcon Tabs (ver.1)

Man Or Astro-man Tabs
 Rating:
4/5 (4 votes)
Defcon lessons Tabs too difficult? Try these video lessons and learn fast
1
                "(5)
Defcon 5 by Man... or Astro-man?
(from Defcon 5...4...3...2...1  2013)


Intro Chords

  F#    G#    A     C#
-------------------------------------------|
-------------------------------------------|
--11----13----14----18---------------------|
--11----13----14----18---------------------|
--9-----11----12----16---------------------|
-------------------------------------------|

Main Riff

  F#                   G       F#         D
---------------------------------------------------------------------------|
---------------------------------------------------------------------------|
--11--11--11-11-11-11--12--12--11--11-11-----------------------------------|x4
--11--11--11-11-11-11--12--12--11--11-11--12--12--12-12-12-12--------------|
--9---9---9--9--9--9---10--10--9---9--9---12--12--12-12-12-12--------------|
------------------------------------------10--10--10-10-10-10-9-9-12--9--7-|

  F#
-------------------------------------------|
-------------------------------------------|
--11---------------------------------------|
--11---------------------------------------|
--9----------------------------------------|
-------------------------------------------|

Lead
---------------------------------------------------------------|
---------------------------------------------------------------|
-------------------------------------------------4-6-2/\/\-----|
---4/\/\-2/\/\---------------------4/\/\-2/\/\-----------------|
----------------2h4---2----------------------------------------|
--------------------------2/\/\--------------------------------|

------------------------------------------------------2-5----2------2/\/\-2/\--/\
---------------------------------------------------------2-5---2----2/\/\-2/\--/\
--------------------------------------------------------------------2/\/\-2/\--/\
---4/\/\-2/\/\-----------------------------------------------------------------/\
----------------2h4--2h4-5-4-2---2-------2-4-2---------------------------------/\
-------------------------------5---2-5---------5-2-----------------------------/\

------------------------------------------------------------------|
-----2------------\7-5----------------0---2---3-3-5-3-2-----------|
---4---4-2------4------7-6------6-------2---2-----------4-2-------|
-----------4---------------7--------------------------------4-2---|
------------------------------------------------------------------|
------------------------------------------------------------------|

------------------------------------------------------------------|
------------------------------------------------------------------|
------------------------------------------------------------------|
---4-2-4-2---2----------------------------------------------------|
-----------4---4-2---2-4-2---2------------------------------------|
-------------------5-------5---2/\/\------------------------------|

Main Riff (again)

  F#                   G       F#         D
---------------------------------------------------------------------------|
---------------------------------------------------------------------------|
--11--11--11-11-11-11--12--12--11--11-11-----------------------------------|x4
--11--11--11-11-11-11--12--12--11--11-11--12--12--12-12-12-12--------------|
--9---9---9--9--9--9---10--10--9---9--9---12--12--12-12-12-12--------------|
------------------------------------------10--10--10-10-10-10-9-9-12--9--7-|

  F#
-------------------------------------------|
-------------------------------------------|
--11---------------------------------------|
--11---------------------------------------|
--9----------------------------------------|
-------------------------------------------|

Lead
------------------------------------------------------------------|
-----2------------\7-5----------------0---2---3-3-5-3-2-----------|
---4---4-2------4------7-6------6-------2---2-----------4-2-------|
-----------4---------------7--------------------------------4-2---|
------------------------------------------------------------------|
------------------------------------------------------------------|

------------------------------------------------------------------|
------------------------------------------------------------------|
------------------------------------------------------------------|
---4-2-4-2---2----------------------------------------------------|
-----------4---4-2---2-4-2---2------------------------------------|
-------------------5-------5---2/\/\------------------------------|


  F#                   G       F#         D
---------------------------------------------------------------------------|
---------------------------------------------------------------------------|
--11--11--11-11-11-11--12--12--11--11-11-----------------------------------|
--11--11--11-11-11-11--12--12--11--11-11--12--12--12-12-12-12--------------|
--9---9---9--9--9--9---10--10--9---9--9---12--12--12-12-12-12--------------|
------------------------------------------10--10--10-10-10-10-9-9-12--9--7-|


Notes:
/\/\ vibrato or whammy bar
\slide
-h- hammer on

Enjoy!!!!
"            
Submit corrections

comments powered by Disqus
↑ Back to top | Man Or Astro-man Tabs for Defcon. Lyrics for acoustic guitar and electric guitar. 1 Tablatures and chords are parodies/interpretations of the original songs. You may use it for private study, scholarship, research or language learning purposes only