» » »

Senor Ma Tanza Bass tabs (ver.1)

Artists:  A B C D E F G H I J K L M N O P Q R S T U V W X Y Z # 

Senor Ma Tanza Bass tabs (ver.1)

Mano Negra
Rating:
0/5 (0 votes)

Hard to play? Try these video lessons and learn fast.
                G ---------------------------------
D --------------------------------- (Through the entire song)
A ----0--2--2-----0--2--2--2-------
E -------------0--------------0----

This is how this song goes, but it is to short to be added, so I'll just add on some more so it'll be considered a proper tab.

G ---------------------------------
D --------------------------------- 
A ----0--2--2-----0--2--2--2-------
E -------------0--------------0----

G ---------------------------------
D --------------------------------- 
A ----0--2--2-----0--2--2--2-------
E -------------0--------------0----

G ---------------------------------
D --------------------------------- 
A ----0--2--2-----0--2--2--2-------
E -------------0--------------0----

G ---------------------------------
D --------------------------------- 
A ----0--2--2-----0--2--2--2-------
E -------------0--------------0----
            
Hard to play? Try these video lessons and learn fast. | Correct




comments powered by Disqus
↑ Back to top | Tablatures and chords are parodies/interpretations of the original songs. You may use it for private study, scholarship, research or language learning purposes only