» » »

Mano Negra, Santa Maradonna Bass tabs (ver.1)

Artists:  A B C D E F G H I J K L M N O P Q R S T U V W X Y Z # 

Santa Maradonna Bass tabs (ver.1)

Mano Negra Tabs
Rating:
0/5 (0 votes)
Hard to play? Try these video lessons and learn fast.
                Mano Negra
KingBob

Riff:
g---------------------------------------------------------------
d---------------------------------------------------------------
a--5-5-5-5-------5-7-7-5-7--5-7-7-5-7--5-7-7-5-7--5-5-5-5-------
e---------5-5-5-5----------------------------------------5-5-5-5


g------------------------------------------------
d------------------------------------------------
a-5-7-7-5-7--5-7-7-5-7--5-7-7-5-7--5-5-5-5-------
e-----------------------------------------5-5-5-5

g------------------------------------------------
d------------------------------------------------
a-5-7-7-5-7--5-7-7-5-7--5-7-7-5-7--5-5-5-5-------
e-----------------------------------------5-5-5-5

g------------------------------------------------
d------------------------------------------------
a-5-7-7-5-7--5-7-7-5-7--5-7-7-5-7--5-5-5-5-------
e-----------------------------------------5-5-5-5

g------------------------------------------------
d------------------------------------------------
a-5-7-7-5-7--5-7-7-5-7--5-7-7-5-7--5-5-5-5-------
e-----------------------------------------5-5-5-5

g---------------------------------
d---------------------------------
a-5-7-7-5-7--5-7-7-5-7--
e---------------------------------

el cambio es ¡ ho he ho ! santa maradona pide gol

g---------------------------
d---------------------------
a-------------5-5-5-5-------
e-5-55-55-55-5-------5-5-5-5

g--------------------------------------------------------------
d--------------5---------------7---------------5---------------
a-5-7-7-5-7-5-7--5-7-7-5-7-5-7----5-7-7-5-7-5-7--5-5-5-5-------
e-------------------------------------------------------5-5-5-5

g--------------------------------------------------------------
d--------------5---------------7---------------5---------------
a-5-7-7-5-7-5-7--5-7-7-5-7-5-7----5-7-7-5-7-5-7--5-5-5-5-------
e-------------------------------------------------------5-5-5-5

g--------------------------------------------------------------
d--------------5---------------7---------------5---------------
a-5-7-7-5-7-5-7--5-7-7-5-7-5-7----5-7-7-5-7-5-7--5-5-5-5-------
e-------------------------------------------------------5-5-5-5

g------------------------------------------------
d------------------------------------------------
a-5-7-7-5-7--5-7-7-5-7--5-7-7-5-7--5-5-5-5-------
e-----------------------------------------5-5-5-5

g-----------------------
d-----------------------
a-5-7-7-5-7--5-7-7-5-7--
e-----------------------

g------------------------------------------
d------------------------------------------
a---------------------------5-5-5-5-7-7-7-7
e--5-55-55-5-55-7-77-77-7-77---------------

g------------------------------------------
d------------------------------------------
a---------------------------5-5-5-5-7-7-7-7
e--5-55-55-5-55-7-77-77-7-77---------------

silencio

g------------------------------------------
d------------------------------------------
a---------------------------5-5-5-5-7-7-7-7
e--5-55-55-5-55-7-77-77-7-77---------------

g------------------------------------------
d------------------------------------------
a---------------------------5-5-5-5-7-7-7-7
e--5-55-55-5-55-7-77-77-7-77---------------

g------------------------------------------
d------------------------------------------
a---------------------------5-5-5-5-7-7-7-7
e--5-55-55-5-55-7-77-77-7-77---------------

g------------------------------------------
d------------------------------------------
a---------------------------5-5-5-5-7-7-7-7
e--5-55-55-5-55-7-77-77-7-77---------------

g------------------------------------------
d------------------------------------------
a---------------------------5-5-5-5-7-7-7-7
e--5-55-55-5-55-7-77-77-7-77---------------

g------------------------------------------
d------------------------------------------
a---------------------------5-5-5-5-7-7-7-7
e--5-55-55-5-55-7-77-77-7-77---------------
            

comments powered by Disqus
↑ Back to top | Mano Negra Bass for Santa Maradonna. Lyrics for acoustic guitar and electric guitar. Tablatures and chords are parodies/interpretations of the original songs. You may use it for private study, scholarship, research or language learning purposes only