» » »

Mano Negra, Santa Maradona Tabs (ver.1)

Artists:  A B C D E F G H I J K L M N O P Q R S T U V W X Y Z # 

Santa Maradona Tabs (ver.1)

Mano Negra Tabs
 Rating:
4/5 (4 votes)
Santa Maradona lessons Tabs too difficult? Try these video lessons and learn fast
                santa maradona



mano negra







   repeat
eb:---------------------|
Bb:---------------------|
Gb:---------------------|
Db:---------------------|
Ab:------------1-2-1----|
Eb:-0-1-2--0----------2-|

  13 secs
eb:----------------------------------------------------------------------------------------|
Bb:-9bf----(9bf)\----9bf----(9bf)\---9bf-------------------------------------9bf-----------|
Gb:-9bf----(9bf)\----9bf----(9bf)\---9bf--------------11-9-11~~~\------------9bf-----------|
Db:---------------------------------------8-9-8--------------------8-9-8---------8-9-8-----|
Ab:----------------------------------------------9~~----------------------9~~----------9~~-|
Eb:----------------------------------------------------------------------------------------|

     
:-----------------------------------|
:-9bf---------------9bf-------------|
:-9bf---------------9bf-------------|
:-------8-9-8------------8-9-8------|
:-------------9~~~-------------9~~~-|
:-----------------------------------|

37 secs
:--------------------|
:--------------------|
:--------------------|
:-9-9-9-9-9----------|
:-7-7-7-7-7--9-9-9-9-|
:------------7-7-7-7-|


:------------------------|
:------------------------|
:------------------------|
:------------------------|
:-4--4-4--4--4-4--4--4-4-|
:-2--2-2--2--2-2--2--2-2-|


:--------------------|
:--------------------|
:--------------------|
:-9-9-9-9-9----------|
:-7-7-7-7-7--9-9-9-9-|
:------------7-7-7-7-|

47 secs
:-------------------------------------|
:-------------------------------------|
:-------------------------------------|
:-----4----4------4----4------4-----4-|
:-------4--4--------4--4---------4--4-|
:-0h2---2--2--0h2---2--2--0h2----2--2-|

:--------------------|
:--------------------|
:--------------------|
:-9-9-9-9-9----------|
:-7-7-7-7-7--9-9-9-9-|
:------------7-7-7-7-|

55 secs
:-------------------------------------|
:-------------------------------------|
:-------------------------------------|
:-----4----4------4----4------4-----4-|
:-------4--4--------4--4---------4--4-|
:-0h2---2--2--0h2---2--2--0h2----2--2-|

:--------------------|
:--------------------|
:--------------------|
:-9-9-9-9-9----------|
:-7-7-7-7-7--9-9-9-9-|
:------------7-7-7-7-|

1:03 secs
:-------------------------------------|
:-------------------------------------|
:-------------------------------------|
:-----4----4------4----4------4-----4-|
:-------4--4--------4--4---------4--4-|
:-0h2---2--2--0h2---2--2--0h2----2--2-|

:--------------------|
:--------------------|
:--------------------|
:-9-9-9-9-9----------|
:-7-7-7-7-7--9-9-9-9-|
:------------7-7-7-7-|

1:10 secs
:-------------------------------------|
:-------------------------------------|
:-------------------------------------|
:-----4----4------4----4------4-----4-|
:-------4--4--------4--4---------4--4-|
:-0h2---2--2--0h2---2--2--0h2----2--2-|

:--------------------|
:--------------------|
:--------------------|
:-9-9-9-9-9----------|
:-7-7-7-7-7--9-9-9-9-|
:------------7-7-7-7-|


:--------------------------------|
:--------------------------------|
:--------------------------------|
:-----4----4------4----4------4--|
:-------4--4--------4--4------2--|
:-0h2---2--2--0h2---2--2--0------|


eb:--------------------------------------|
Bb:--------------------------------------|
Gb:--------------------------------------|
Db:-4-4-4--4--4-4--4-4--9-9-9-9----------|
Ab:-2-2-2--2--2-2--2-2--7-7-7-7--9-9-9-9-|
Eb:------------------------------7-7-7-7-|

1:30
gt1
:-------------------------------------|
:-------------------------------------|
:-------------------------------------|
:-----4----4------4----4------4-----4-|
:-------4--4--------4--4---------4--4-|
:-0h2---2--2--0h2---2--2--0h2----2--2-|

gt1
:--------------------|
:--------------------|
:--------------------|
:-9-9-9-9-9----------|
:-7-7-7-7-7--9-9-9-9-|
:------------7-7-7-7-|

solo                                                                 bar
eb:-----------------------------------------------------------------------|
Bb:--------2---------2----------------------------------------------------|
Gb:-4bp2-4---4-2--4b---4p2--2h4p2---2-------------------------------------|
Db:-------------------------------4---4-2h4p2---2-------------------------|
Ab:-------------------------------------------4---4--2h4p2----------------|
Eb:--------------------------------------------------------4b--(4b)\------|

1:37
eb:-17p14----14~~~~--17p14----14~~~--------------------------------------------------------|
Bb:-------17---------------17---------17p14----14-----------------------------------17b-17b|
Gb:-----------------------------------------16----16-14h16p14-----------------14h16--------|
Db:------------------------------------------------------------16--16~~~--16---------------|
Ab:----------------------------------------------------------------------------------------|
Eb:----------------------------------------------------------------------------------------|
                     1:45
                                        repeat
eb:---------------|-----14--------------14-----------14-------------|-17b--17b--14--17b-17b|
Bb:-17p14---------|---------17p14----------17p14---------17p14------|----------------------|
Gb:-------16b-----|-16b-------------16b----------16b------------16b-|----------------------|
Db:---------------|-------------------------------------------------|----------------------|
Ab:---------------|-------------------------------------------------|----------------------|
Eb:---------------|-------------------------------------------------|----------------------|

pick slide
eb:--X\----------------------------|
Bb:--X\----------------------------|
Gb:--X\----------------------------|
Db:--------------------------------|
Ab:--------------------------------|
Eb:--------------------------------|

gt1
:-------------------------------------|
:-------------------------------------|
:-------------------------------------|
:-----4----4------4----4------4-----4-|
:-------4--4--------4--4---------4--4-|
:-0h2---2--2--0h2---2--2--0h2----2--2-|

gt1
:--------------------|
:--------------------|
:--------------------|
:-9-9-9-9-9----------|
:-7-7-7-7-7--9-9-9-9-|
:------------7-7-7-7-|


:--------------------------------|
:--------------------------------|
:--------------------------------|
:-----4----4------4----4------4--|
:-------4--4--------4--4------2--|
:-0h2---2--2--0h2---2--2--0------|

2:06
     2 times
eb:------------------------------------------------------|
Bb:------------------------------------------------------|
Gb:------------------------------------------------------|
Db:-4-4-4-4-4-4-4--6-6-6-6-6-6--9-9-9-9-9-9--11-11-11-11-|
Ab:-2-2-2-2-2-2-2--4-4-4-4-4-4--7-7-7-7-7-7--9--9--9--9--|
Eb:------------------------------------------------------|

eb:--------|
Bb:--------|
Gb:--------|
Db:--------|
Ab:-9\-----|
Eb:-7\-----|

2:21 
  repeat
eb:------------------------------------------------------|
Bb:------------------------------------------------------|
Gb:------------------------------------------------------|
Db:-4--------------6------------9------------11----------|
Ab:-2--------------4------------7------------9-----------|
Eb:------------------------------------------------------|

   repeat
eb:------------------------------------------------------|
Bb:------------------------------------------------------|
Gb:------------------------------------------------------|
Db:-4-4-4-4-4-4-4--6-6-6-6-6-6--9-9-9-9-9-9--11-11-11-11-|
Ab:-2-2-2-2-2-2-2--4-4-4-4-4-4--7-7-7-7-7-7--9--9--9--9--|
Eb:------------------------------------------------------|

gt2
2:43
:--------------------------------|
:--------------------------------|
:-5~~~~~---5h6h8--5h6p5----------|
:--------6--------------6~~------|
:--------------------------------|
:--------------------------------|

 repeat
eb:------------------------------------------------------|
Bb:------------------------------------------------------|
Gb:------------------------------------------------------|
Db:-4--------------6------------9------------11----------|
Ab:-2--------------4------------7------------9-----------|
Eb:------------------------------------------------------|
            
Submit corrections

comments powered by Disqus
↑ Back to top | Mano Negra Tabs for Santa Maradona. Lyrics for acoustic guitar and electric guitar. Tablatures and chords are parodies/interpretations of the original songs. You may use it for private study, scholarship, research or language learning purposes only