>
 >
King Kong Five

King Kong Five Bass Tabs

Mano Negra - King Kong Five chords, tabs, tablatures, lyrics

Guitar lessons | Add/correct | Request | Top 50 tabs Artists:  A B C D E F G H I J K L M N O P Q R S T U V W X Y Z 0-9

King Kong Five Bass Tabs – Mano Negra

CD, Sheet music, Poster

Do you like King Kong Five? Share with your friends now
Bass TabsTabs
the sign "__1__" means all the notes are at one time...
the sign "  " means PAUSE
 
-1st part-
         __1__  __1__
G----5-3-----3--------
D--------3^4----5^4^3-
A--3------------------ (Repeat several times, about 16 or 17)
E---------------------

-2st part-

(first change)
         __1__  __1__
G------------3--------
D--------3^4----5^4^3-
A--3----------------- (Repeat 4 times)
E---------------------

(second change)
                __1__  __1__
G-------------------3-------------
D---------------3^4----5^4^3------
A--3------1-3-------------------- (Repeat 2 times)
E------3-3------------------------

(third change)
         __1__  __1__
G------------3--------
D--------3^4----5^4^3-
A--3----------------- (Repeat 2 times)
E---------------------

(fourth change)
     _1_    _1_
G---------------------
D---------------------
A--6-6----3-3--------- (only once just before the raggae birdge...)
E------6------3-------


-RAGGAE BRIDGE-

G-----------------------  (after repeating this several times there's a
D-----------------3-3---   part only for the singer that keep on holding
A---3-3--6-6------------   this same chords...)
E-------------6-6------- 

after this Bridge repeat the second part holdin' the third change for 
four times instead of two, without the fourth part...

Last part

G---------------------
D---------------------
A--3----------------- (Repeat several times)
E-------6-6-5-6-------


By listening to the song you can get a good idea of where the
parts go.  

G----------------------
D-----------------3-3--
A--3-3--6-6------------  (Repeat several times,
E------------6-6-------    until the end...)


QUE PASA POR LA CAJE MORENAAAAAAAAA?????????





Comments


Popular Mano Negra tabs & chords
Bring The Fire Bass Tabs
Love And Hate 1 Bass Tabs
Out Of Time Man 2 Bass Tabs
Indios De Barcelona Tabs
King Kong Five Tabs
Mala Vida Tabs
Out Of Time Man Tabs
Pas Assez De Toi Tabs
Peligro Tabs
Sidi H Bibi Tabs


Song lyrics



↑ Back to top | Tablatures and chords are parodies/interpretations of the original songs. You may use it for private study, scholarship, research or language learning purposes only
© 2014 AZChords.com Contact us | Privacy policy | DMCA | Add/correct tabs | Request tabs | Top 50 tabs