» » »

King Kong Five Bass tabs (ver.1)

Artists:  A B C D E F G H I J K L M N O P Q R S T U V W X Y Z # 

King Kong Five Bass tabs (ver.1)

Mano Negra
Rating:
0/5 (0 votes)

Hard to play? Try these video lessons and learn fast.
                the sign "__1__" means all the notes are at one time...
the sign " ° " means PAUSE
 
-1st part-
         __1__  __1__
G----5-3-----3--------
D--------3^4----5^4^3-
A--3------------------ (Repeat several times, about 16 or 17)
E---------------------

-2st part-

(first change)
         __1__  __1__
G------------3--------
D--------3^4----5^4^3-
A--3-°---------------- (Repeat 4 times)
E---------------------

(second change)
                __1__  __1__
G-------------------3-------------
D---------------3^4----5^4^3------
A--3-°-----1-3-------------------- (Repeat 2 times)
E------3-3------------------------

(third change)
         __1__  __1__
G------------3--------
D--------3^4----5^4^3-
A--3-°---------------- (Repeat 2 times)
E---------------------

(fourth change)
     _1_    _1_
G---------------------
D---------------------
A--6-6----3-3--------- (only once just before the raggae birdge...)
E------6------3-------


-RAGGAE BRIDGE-

G-----------------------  (after repeating this several times there's a
D-----------------3-3---   part only for the singer that keep on holding
A---3-3--6-6------------   this same chords...)
E-------------6-6------- 

after this Bridge repeat the second part holdin' the third change for 
four times instead of two, without the fourth part...

Last part

G---------------------
D---------------------
A--3-°---------------- (Repeat several times)
E-------6-6-5-6-------


By listening to the song you can get a good idea of where the
parts go.  

G----------------------
D-----------------3-3--
A--3-3--6-6------------  (Repeat several times,
E------------6-6-------    until the end...)


QUE PASA POR LA CAJE MORENAAAAAAAAA?????????
            
Hard to play? Try these video lessons and learn fast. | Correct




comments powered by Disqus
↑ Back to top | Tablatures and chords are parodies/interpretations of the original songs. You may use it for private study, scholarship, research or language learning purposes only