» » »

Mano Negra, Bring The Fire Bass tabs (ver.1)

Artists:  A B C D E F G H I J K L M N O P Q R S T U V W X Y Z # 

Bring The Fire Bass tabs (ver.1)

Mano Negra Tabs
 Rating:
4/5 (4 votes)
Bring The Fire lessons Tabs too difficult? Try these video lessons and learn fast
1
                the sign "__1__" means all the notes are at one time...
the sign " ° " means PAUSE
 
-1st part-
   __1__  
G-----------------------------
D-----------------------------
A--------------7-7----5----5-- (Repeat several times)
E--0-0-0--0--0------7----7----

-2st part-

G--------------------------------------------------------------
D----------------------------5-5-------------------------------
A--5^7-7-7--5^7-7-7--5^7-7-7-------5^7-7--5^7-7-7-5^7-7-7------
E---------------------------------------------------------3-3--
(Repeat 6 times during the guitar solo)

Then Repeat 1st part until the end!!

By listening to the song you can get a good idea of where the
parts go.  

QUE PASA POR LA CAJE MORENAAAAAAAAA?????????
            
Submit corrections

comments powered by Disqus
↑ Back to top | Mano Negra Bass for Bring The Fire. Lyrics for acoustic guitar and electric guitar. 1 Tablatures and chords are parodies/interpretations of the original songs. You may use it for private study, scholarship, research or language learning purposes only