» » »

Withered Soul Bass tabs (ver.1)

Artists:  A B C D E F G H I J K L M N O P Q R S T U V W X Y Z # 

Withered Soul Bass tabs (ver.1)

Manntis
Rating:
0/5 (0 votes)

Hard to play? Try these video lessons and learn fast.
                Manntis - Withered Soul

tuning (low to high) - D A D G

Riff 1 x2
|-----------------------------------------------------|
|----------3-3-5-5-6-6-8-8----------6-6-8-8-9-9-11-11-|
|-----------------------------------------------------|
|-000-100------------------000-100--------------------|

|------------------------------------------------------|
|----------3-3-5-5-6-6-8-8-----------------------------|
|------------------------------------------------------|
|-000-100------------------2h3-3-2h3-3-3-7h8-8-7h8-8-8-|

Riff 2 x1
|-------------------5\7-7h8-5\8--------------------7\9-9h10-7\10--|
|-----------------------------------------------------------------|
|-----------------------------------------------------------------|
|-00-00-00-00-00-00--------------00-00-00-00-00-00----------------|

Riff 3 x1
|----------------------------------5\7-7h8-5\8--|
|-------7----------7----------7-----------------|
|-----------------------------------------------|
|-00-00---00-00-00---00-00-00---00--------------|

|----------------------------------7\9-9h10-7\10--|
|-------7----------7----------7-------------------|
|-------------------------------------------------|
|-00-00---00-00-00---00-00-00---00----------------|

Riff 4 x2
|---------------------------------------------------------|
|---------------------------------------------------------|
|------------------------7--5-------7--5------------------|
|-0--------XXX-2---------------7----------X-2---------XXX-|

Riff 1 x2

Riff 2 x1

Riff 3 x1

Riff 4 x2

Fill 1 x1
|------------------------------------------------------------------|
|------------------------------------------------------------------|
|------------------------------------------------------------------|
|-XXX0---0-------------------------XXX0---0------------------------|

Riff 5 x4
|---------------------------------------|
|---------------------------------------|
|-----1-------------------1-------------|
|-XXX0--0h1-1-1---0h1-1-1--0h1-1-1--0h1-|

hold open D for like 15 seconds
            
Hard to play? Try these video lessons and learn fast. | Correct




comments powered by Disqus
↑ Back to top | Tablatures and chords are parodies/interpretations of the original songs. You may use it for private study, scholarship, research or language learning purposes only