» » »

Wihered Soul Tabs (ver.1)

Artists:  A B C D E F G H I J K L M N O P Q R S T U V W X Y Z # 

Wihered Soul Tabs (ver.1)

Manntis
Rating:
0/5 (0 votes)

Hard to play? Try these video lessons and learn fast.
                Band:Manntis
Album:Sleep In Your Grave

Key:
 X :dead note
 > :hold note
 . :palm mute
 r :let note ring
 p :pull off
This is prettey much the whole song except for the soloing. Enjoy.

Part A
e|----------|                                      \
B|----------|                                       \
G|----------| you get the idea...jus add the beat.   \
D|-00000000-|                                         \
A|-00000000-|                                          \
D|-00000000-|                                           \
   ........                                             X3
                                                        /
Part B                                                 /
e|-----------------|                                  /
B|-----------------|                                 /
G|-----------------| there some kind of harmonic or /
D|-0-3-0-3-2-0---0-| pinch or wah wah for the last 3 
A|-------------3---| notes at certain parts
D|-----------------|

Part C
e|-----------------------|
B|-----------------------|
G|-----------------------| once again add the beat.
D|-3333333333-7777777777-|
A|-3333333333-7777777777-|
D|-3333333333-7777777777-|
   .......... ..........

Part D                                           Part E
e|-------------------|                           e|----------|
B|-------------------|                           B|-10-10-10-|
G|-------------------| Repeat as needed, then... G|-X--X--X--|
D|-------------------|                           D|-8--8--8--| X2
A|-00-00-00-00-00-00-|                           A|----------|
D|-00-00-00-00-00-00-|                           D|----------|
   .. .. .. .. .. ..

Part D again then,

Part F
e|----------------|
B|-10-10-10/5-5-5-|
G|-X--X--X-/X-X-X-|
D|-8--8--8-/3-3-3-|
A|----------------|
D|----------------|

Part G
e|---------|
B|---------|
G|-------3-|  X3 (Repeat the palm muted opens as needed)
D|-------X-|
A|-00-00---|
D|-00-00---|
   .. ..

Part E : X2

Part H
e|--------------------------------------------------|
B|--------------------------------------------------|
G|--------------------------------------------------|
D|-0>-----0-2-3>-----88-77-555--8-7p0-5>----7-5-7-8-|
A|-0>-----0-2-3>-----88-77-555--8-7p0-5>----7-5-7-8-|
D|-0>-----0-2-3>-----88-77-555--8-7p0-5>----7-5-7-8-|
                                            . . . .

I'm gonna skip the part during the solo, its easy enough to figure out on your own, its all repeat notes.

End with,
e|------------------------------|
B|------------------------------|
G|------------------------------| Hold for about 17-18 seconds
D|-0>r--------------------------|
A|-0>r--------------------------|
D|-0>r--------------------------|
                                            . . . . 
Thats Prettey Much everything you need to know to play the whole song except the solo. Have fun.
            
Hard to play? Try these video lessons and learn fast. | Correct




comments powered by Disqus
↑ Back to top | Tablatures and chords are parodies/interpretations of the original songs. You may use it for private study, scholarship, research or language learning purposes only