» » »

Second Life Ahead Bass tabs (ver.1)

Artists:  A B C D E F G H I J K L M N O P Q R S T U V W X Y Z # 

Second Life Ahead Bass tabs (ver.1)

Manntis
Rating:
0/5 (0 votes)

Tabs too difficult? Try these video lessons and learn fast.
                Manntis - Second Life Ahead

tuning (low to high) - D A D G

Riff 1 x1
|-------------------------------------------------|
|-------------------------------------------------|
|-------------------------------------------------|
|-2-0---------2-0---------2-0---------2-0---------|

Riff 2 x4
|---------------------------------------------------------|
|---------------------------------------------------------|
|-------5-------------7-------------8-------------7-------|
|-2-0------X-XX-2-0------X-XX-3-0------X-XX-5-0------XXXX-|

Riff 3 x6
|-------------------------------------------------------------------------|
|-------------------------------------------------------------------------|
|-------------------------------------------------------------7--5--9--7--|
|-1p0-0-0-0-1p0-0-0-0-2p0-0-0-0-2p0-0-0-0-1p0-0-0-0-1p0-0-0-0-------------|

Riff 4 x4
|---------------------------------------------------------|
|---------------------------------------------------------|
|---------------------------------------------------------|
|-0---------3-1---------5-3---------7-5--------/10-1010---|

Riff 5 x2
|-------------------------------------------------------------|
|-------------------------------------------------------------|
|-5-5-5-5------5-5-5-5-6-6-6-6--5-5-5-5------5-5-5-5-6-6-6-6--|
|---------XXXX--------------------------XXXX------------------|

|--------------------------------------------12-12-10-12----------|
|--------------------------------------------------------12-10----|
|-7-7-7-7------7-7-7-7-8-8-8-8--7-7-7-7------------------------12-|
|---------XXXX--------------------------XXXX----------------------|

Riff 4 x2

Fill 1 x1
|-----------------------------------------------------------|
|-----------------------------------------------------------|
|-----------------------------------------------7--5--9--7--|
|-000-1p0-0-1p0-0-0-0-0-1p0-0-1p0-000-2p0-0-2p0-------------|

Riff 6 x2
|-----------------------------------------------------------------|
|-----------------------------------------------------------------|
|-----------------------------------------------------------------|
|-000-1p0-0-1p0-0-0-0-0-1p0-0-1p0-000-2p0-0-2p0-0-0-0-0-2p0-0-2p0-|

Fill 1 x1
            
Tabs too difficult? Try these video lessons and learn fast.


comments powered by Disqus
↑ Back to top | Tablatures and chords are parodies/interpretations of the original songs. You may use it for private study, scholarship, research or language learning purposes only