» » »

My Enemy Bass tabs (ver.1)

Artists:  A B C D E F G H I J K L M N O P Q R S T U V W X Y Z # 

My Enemy Bass tabs (ver.1)

Manntis
Rating:
0/5 (0 votes)

Tabs too difficult? Try these video lessons and learn fast.
                Manntis - My Enemy

tuning (high to low) - D A D G

Riff 1 x4
|-----------------------------------------------------------------|
|-----------------------------------------------------------------|
|-----------------------------------------------------------------|
|-0-0-0-0-0-0-0-0-0-0-0-0-0-0-0-0-3-3-3-3-3-3-3-3-2-2-2-2-2-2-2-2-|

Riff 2 x2
|---------------------------------|
|---------------------------------|
|---------------------------------|
|-0h3-6p5-5p3-0h3-6p5-5p3-666-333-|

Riff 3 x2
|-----------------------------------------------------------------|
|-----------------------------------------------------------------|
|-----------------------------------------------------------------|
|-0-0-3-3-6-6-6-6-0-0-3-3-6-6-6-6-0-0-3-3-6-6-6-6-0-0-3-3-6-6-6-6-|

Riff 4 x4
|-----------------------------------------------------------------|
|-----------------------------------------------------------------|
|-5-5-5-5-5-5-5-5-5-5-5-5-5-5-5-5-7-7-7-7-7-7-7-7-8-8-8-8-8-8-8-8-|
|-----------------------------------------------------------------|

Riff 2 x2

Riff 3 x2

Riff 5 x1
|----------------------------------------------------------------------------|
|-------6------------------6------------------6------------------6---------6-|
|-4h5h6--------------4h5h6--------------4h5h6--------------4h5h6-------------|
|---------00-0-0-00----------00-0-0-00----------00-0-0-00----------00-0-0-0--|

Riff 6 x2
|-------------------------------------------------------------------------|
|-------------------------------------------------------------------------|
|-------------3h5-6-------------3h5-6-------------3h5-6-------------3h5-6-|
|-000-00-00-0-------000-00-00-0-------000-00-00-0-------000-00-00-0-------|

Riff 5 x1
            
Tabs too difficult? Try these video lessons and learn fast.


comments powered by Disqus
↑ Back to top | Tablatures and chords are parodies/interpretations of the original songs. You may use it for private study, scholarship, research or language learning purposes only