» » »

Manntis, Breed New Life Tabs (ver.1)

Artists:  A B C D E F G H I J K L M N O P Q R S T U V W X Y Z # 

Breed New Life Tabs (ver.1)

Manntis Tabs
 Rating:
4.2/5 (5 votes)
Breed New Life lessons Tabs too difficult? Try these video lessons and learn fast
                -----------------------------------manttis--------------------------------

band:manntis
album:sleep in your grave

tuning: drop d
intro
e---------------------|
g-----3-----3-----333-|
b-----3-----3-----333-|
d-----1-----1-----111-|
a---------------------|
d--000---000---000----|

e------------------------------     repeat--| 3x
g-------------------------33-33-------------|
b-------------------------33-33-------------|
d-------------------------11-11-------------|
a----------108781087/5----------------------|
d---0000000------------000------------------|

e------------------------------|
g------------------------------|
b---3333-3/7777/10101010/3333--|
d---3333-3/7777/10101010/3333--|
a---1111-1/5555/ 8 8 8 8/1111--|
d------------------------------|

--repeat intro riff

e---------------------------------------------------|
g---------------------------------------------------|
b---------------------------------------------------|
d---------------------------------------------------|
a-875875875875-<10810-1312108>---875875875875-------|     
d----------------------------------------------3----|

-repeat intro

e------------------------------|
g------------------------------|
b---3333-3/7777/10101010/3333--|
d---3333-3/7777/10101010/3333--|
a---1111-1/5555/ 8 8 8 8/1111--|
d------------------------------|

solo
e|----------------------------------------------------------|
b|-----------------------------------------------------16*b-|
g|--17--------15----------17-----------15-------------------| (3x)
d|-----15-14-----15-14-------15-14--------15-14--12-14------|
a|----------------------------------------------------------|
d|----------------------------------------------------------|

e---
g---
b---
d--0~
a--0~
d--0~let ring

e-----------------------------------------------|
g---------------------3~---------------------3~-|
b---------------------3~---------------------3~-|
d---------------------1~---------------------1~-|
a-0000-0000-0000-00000-------108781087/500000---|
d-0000-0000-0000-00000--00000-----------00000---|
                       
e--------------------------------------------|
g---------------------------------3---3---33-|
b---3333-3/7777/10101010/3333-----3---3---33-|
d---3333-3/7777/10101010/3333-----1---1---11-|
a---1111-1/5555/ 8 8 8 8/1111----------------|
d------------------------------000-000-000---|


e---------------------------------------------------|
g---------------------------------------------------|
b---------------------------------------------------|
d---------------------------------------------------|
a-875875875875-<10810-1312108>---875875875875-------|     
d----------------------------------------------3----|

e---------------------|
g-----3-----3-----333-|
b-----3-----3-----333-|
d-----1-----1-----111-|
a---------------------|
d--000---000---000----|

              well thats all the tab and hope u guys enjoy it if u have correction email 
enjoy!!!!!!!!!!metalcore rocks plz rate it
            
Submit corrections

comments powered by Disqus
↑ Back to top | Manntis Tabs for Breed New Life. Lyrics for acoustic guitar and electric guitar. Tablatures and chords are parodies/interpretations of the original songs. You may use it for private study, scholarship, research or language learning purposes only