>
 >
Axe Of Redemtion

Axe Of Redemtion Guitar Tabs

Manntis - Axe Of Redemtion chords, tabs, tablatures, lyrics

Guitar lessons | Add/correct | Request | Top 50 tabs Artists:  A B C D E F G H I J K L M N O P Q R S T U V W X Y Z 0-9

Axe Of Redemtion Guitar Tabs – Manntis

CD, Sheet music, Poster

Do you like Axe Of Redemtion? Share with your friends now
Tabs
this is my 2 tab so go easy on me but send me your revisions and feed back thx.






Notations:  . = Palm Mute
            * = Pinch Harmonic/Artificial Harmonic
            h = Hammer On
            p = Pull Off
            ~ = Hold

Verse 1 
[Guitar 1]
e|----------------------------------------||
B|----------------------------------------||
G|----------------------------------------||
D|----------------------------------------||
A|-----5h8p5h8p5-----5h8p5h8p5-----4h7p4--||
D|-000-----------000-----------000--------||
   ...           ...           ...

[Guitar 1]
e|-----------------------------------||
B|-----------------------------------||
G|-----------------------------------||
D|-----------------------------------||
A|-----5h8p5h8p5---------5-------6---||
D|-000-----------000-5-7---8-6-8---9-||
   ...           ... . .     . .

[Guitar 1]
e|------------------------------------------------------||
B|------------------------------------------------------||
G|------------------------------------------------------||
D|------------------------------------------------------||
A|-----5h8p5h8-----5h8p5h8-----4h7p4---222224477773333--||
D|-000---------000---------000--------------------------||
   ...         ...         ...              
[Guitar 2]
e|------------------------------------------------------||
B|------------------------------------------------------||
G|------------------------------------------------------||
D|-0----------------------------------------------------||
A|-0-----------------------------------2~---4~-7~--3~---||
D|-0-----------------------------------2~---4~-7~--3~---||

[Both Guitars]
e|-----------------------------------------||
B|-----------------------------------------||
G|-----------------------------------------||
D|-----------------------------------------||
A|-----5h8p5h8p5-----5h8p5h8p5-----4h7p4h7-||
D|-000-----------000-----------000---------||
   ...           ...           ...

[Both Guitars]
e|-----------------------------------||
B|-----------------------------------||
G|-----------------------------------||
D|-----------------------------------||
A|-----5h8p5h8p5---------5-------6---||
D|-000-----------000-5-7---8-6-8---9-||
   ...           ... . .     . .

[Both Guitars]
e|--------------------------------------------------------||
B|--------------------------------------------------------||
G|--------------------------------------------------------||
D|--------------------------------------------------------||
A|-----5h8p5h8p5-----5h8p5h8p5-----4h7p4---2~--4~-7~--3~--||
D|-000-----------000-----------000---------2~--4~-7~--3~--||
   ...           ...           ...   

[Both Guitars]
e|----------------------------------------||
B|----------------------------------------||
G|----------------------------------------||
D|----------------------------------------||
A|-----5h8p5h8p5-----5h8p5h8p5-----4h7p4--||
D|-000-----------000-----------000--------||
   ...           ...           ...

[Both Guitars]
e|------------------------------------||
B|------------------------------------||
G|------------------------------------||
D|------------------------------------||
A|-----5h8p5h8p5---------5-------6----||
D|-000-----------000-5-7---8-6-8---9--||
   ...           ... . .     . .

[Both Guitars]
e|--------------------------------------------------------||
B|--------------------------------------------------------||
G|--------------------------------------------------------||
D|--------------------------------------------------------||
A|-----5h8p5h8p5-----5h8p5h8p5-----4h7p4--2~---4~-7~--3~--||
D|-000-----------000-----------000--------2~---4~-7~--3~--||
   ...           ...           ...   

Chorus
[Both Guitars]
e|-------------------------------------------------------------||
B|-------------------------------------------------------------||
G|-------------------------------------------------------------||
D|-7-7-7-7-7-7-------------------------------------------------||
A|-5-5-5-5-5-5-----8-8-8-8-8-8-----8-8-8-8-8-8-----5-5-5-5-5-5-||
D|-------------0-0-8-8-8-8-8-8-0-0-8-8-8-8-8-8-0-0-5-5-5-5-5-5-||
               . .             . .             . .

[Both Guitars]
e|------------------------------------------------------------||
B|------------------------------------------------------------||
G|------------------------------------------------------------||
D|-------------------------------------7--------7--------7----||
A|-----7-7-7-7-7-7-----5-5-5-5-5-5-----5--------5--------5----||
D|-0-0-7-7-7-7-7-7-0-0-5-5-5-5-5-5-0-0---000000---000000---00-||
   . .             . .             . .   ......   ......   ..

[Both Guitars]
e|----------------------------------------------------------||
B|----------------------------------------------------------||
G|-101010101010-----999999-----101010101010-----121212121212||
D|----------------------------------------------------------||
A|-8-8-8-8-8-8------777777-----8-8-8-8-8-8------101010101010||
D|-------------0-0---------0-0--------------0-0-------------||
               . .         . .              . .

[Both Guitars]
e|--------------------------------------------------------------||
B|--------------------------------------------------------------||
G|-----101010101010-----121212121212----------------------------||
D|---------------------------------------7--------7--------7----||
A|-----8-8-8-8-8-8------101010101010-----5--------5--------5----||
D|-0-0--------------0-0--------------0-0---000000---000000---00-||
   . .              . .              . .   ......   ......   ..


Verse 2
[Guitar 1]
e|----------------------------------------||
B|----------------------------------------||
G|----------------------------------------||
D|----------------------------------------||
A|-----5h8p5h8p5-----5h8p5h8p5-----4h7p4--||
D|-000-----------000-----------000--------||
   ...           ...           ...

[Guitar 1]
e|------------------------------------||
B|------------------------------------||
G|------------------------------------||
D|------------------------------------||
A|-----5h8p5h8p58---------5-------6---||
D|-000------------0-0-5-7---8-6-8---9-||
   ...            . . . .     . .


[Guitar 1]
e|----------------------------------------------------------||
B|----------------------------------------------------------||
G|----------------------------------------------------------||
D|----------------------------------------------------------||
A|-----5h8p5h8p5-----5h8p5h8p5-----4h7p4---2~---4~-7~--3~---||
D|-000-----------000-----------000---------2~---4~-7~--3~---||
   ...           ...           ...              
[Guitar 2]
e|----------------------------------------------------------||
B|----------------------------------------------------------||
G|----------------------------------------------------------||
D|-0--------------------------------------------------------||
A|-0--------------------------------------------------------||
D|-0---------------------------------------2222224477773333-||

[Both Guitars]
e|-----------------------------------------||
B|-----------------------------------------||
G|-----------------------------------------||
D|-----------------------------------------||
A|-----5h8p5h8p5-----5h8p5h8p5-----4h7p4---||
D|-000-----------000-----------000---------||
   ...           ...           ...

[Both Guitars]
e|-----------------------------------||
B|-----------------------------------||
G|-----------------------------------||
D|-----------------------------------||
A|-----5h8p5h8p5---------5-------6---||
D|-000-----------0-0-5-7---8-6-8---9-||
   ...           . . . .     . .

[Both Guitars]
e|-----------------------------------------------------------||
B|-----------------------------------------------------------||
G|-----------------------------------------------------------||
D|-----------------------------------------------------------||
A|-----5h8p5h8p5-----5h8p5h8p5-----4h7p4---------------------||
D|-000-----------000-----------000---------2222224477773333--||
   ...           ...           ...   

[Both Guitars]
e|----------------------------------------||
B|----------------------------------------||
G|----------------------------------------||
D|----------------------------------------||
A|-----5h8p5h8p5-----5h8p5h8p5-----4h7p4--||
D|-000-----------000-----------000--------||
   ...           ...           ...

[Both Guitars]
e|-----------------------------------||
B|-----------------------------------||
G|-----------------------------------||
D|-----------------------------------||
A|-----5h8p5h8p5---------5-------6---||
D|-000-----------0-0-5-7---8-6-8---9-||
   ...           . . . .     . .


[Both Guitars]
e|-----------------------------------------------------------||
B|-----------------------------------------------------------||
G|-----------------------------------------------------------||
D|-----------------------------------------------------------||
A|-----5h8p5h8p5-----5h8p5h8p5-----4h7p4---------------------||
D|-000-----------000-----------000---------2222224477773333--||
   ...           ...           ...   

[Both Guitars]
e|-----||
B|-----||
G|-----||
D|-0---||
A|-0---||
D|-0---||

Breakdown Part 1
[Guitar 1]
e|------------------------------------------------------------------------||
B|------------------------------------------------------------------------||
G|------------------------------------------------------------------------||
D|------------------------------------------7h8p7----7--------------------||
A|----------------------0-7-8-10------------------10---10-8-7h8p7--7------||
D|-0000000000-0-7-8-10-----------0000000000----------------------10-10-8--||
   ..........                    ..........

[Guitar 1]
e|------------------------------------------------------------------------||
B|------------------------------------------------------------------------||
G|------------------------------------------------------------------------||
D|------------------------------------------7h8p7----7--------------------||
A|----------------------0-7-8-10------------------10---10-8-7h8p7--7------||
D|-0000000000-0-7-8-10-----------0000000000----------------------10-10-8--||
   ..........                    ..........
[Guitar 2]
e|------------------------------------------------------------------------||
B|------------------------------------------------------------------------||
G|------------------------------------------------------------------------||
D|-0----------------------------------------7h8p7----7--------------------||
A|-0----------------------------------------------10---10-8-7h8p7--7------||
D|-0-------------------------------------------------------------10-10-8--||

[Both Guitars]
e|------------------------------------------------------------------------||
B|------------------------------------------------------------------------||
G|------------------------------------------------------------------------||
D|------------------------------------------7h8p7----7--------------------||
A|----------------------0-7-8-10------------------10---10-8-7h8p7--7------||
D|-0000000000-0-7-8-10-----------0000000000----------------------10-10-8--||
   ..........                    ..........

[Both Guitars]
e|------------------------------------------------------------------------||
B|------------------------------------------------------------------------||
G|------------------------------------------------------------------------||
D|------------------------------------------7h8p7----7--------------------||
A|----------------------0-7-8-10------------------10---10-8-7h8p7--7------||
D|-0000000000-0-7-8-10-----------0000000000----------------------10-10-8--||
   ..........                    ..........

[Guitar 1]
e|------------------------------------------------------------------------||
B|------------------------------------------------------------------------||
G|------------------------------------------------------------------------||
D|----------------------0-7-8-10------------7h8p7----7--------------------||
A|------------0-7-8-10----------------------------10---10-8-7h8p7--7------||
D|-0000000000--------------------0000000000----------------------10-10-8--||
   ..........                    ..........
[Guitar 2]
e|------------------------------------------------------------------------||
B|------------------------------------------------------------------------||
G|------------------------------------------------------------------------||
D|------------------------------------------7h8p7----7--------------------||
A|----------------------0-7-8-10------------------10---10-8-7h8p7--7------||
D|-0000000000-0-7-8-10-----------0000000000----------------------10-10-8--||
   ..........                    ..........

[Guitar 1]
e|------------------------------------------------------------------------||
B|------------------------------------------------------------------------||
G|------------------------------------------------------------------------||
D|----------------------0-7-8-10------------7h8p7----7--------------------||
A|------------0-7-8-10----------------------------10---10-8-7h8p7--7------||
D|-0000000000--------------------0000000000----------------------10-10-8--||
   ..........                    ..........
[Guitar 2]
e|------------------------------------------------------------------------||
B|------------------------------------------------------------------------||
G|------------------------------------------------------------------------||
D|------------------------------------------7h8p7----7--------------------||
A|----------------------0-7-8-10------------------10---10-8-7h8p7---7-----||
D|-0000000000-0-7-8-10-----------0000000000-----------------------10-10-8-||
   ..........                    ..........

Breakdown Part 2
[Both Guitars]
e|-----------------------------||
B|-----------------------------||
G|-----------------------------||
D|-----------------------------||
A|-0-0-0-0-------0-0-0-0-0-0-0-||
D|-0-0-0-0-------0-0-0-0-0-0-0-||
   . . . .       . . . . . . .

[Both Guitars]
e|-----------------------------||
B|-----------------------------||
G|-----------------------------||
D|-----------------------------||
A|-0-0-0-0-------0-0-0-0-0-0-0-||
D|-0-0-0-0-------0-0-0-0-0-0-0-||
   . . . .       . . . . . . .

[Both Guitars]
e|-----------------------------||
B|-----------------------------||
G|-----------------------------||
D|-----------------------------||
A|-0-0-0-0-------0-0-0-0-0-0-0-||
D|-0-0-0-0-------0-0-0-0-0-0-0-||
   . . . .       . . . . . . .

[Both Guitars]
e|-----------------------------||
B|-----------------------------||
G|-----------------------------||
D|-----------------------------||
A|-0-0-0-0-------0-0-0-0-0-0-0-||
D|-0-0-0-0-------0-0-0-0-0-0-0-||
   . . . .       . . . . . . .

[Guitar 1]
e|----------------------------------------||
B|----------------------------------------||
G|----------------------------------------||
D|------------------------------0-7-8-10*-||
A|-0-0-0-0-------0-0-0-0-0-0-0------------||
D|-0-0-0-0-------0-0-0-0-0-0-0------------||
   . . . .       . . . . . . .
[Guitar 2]
e|----------------------------------------||
B|----------------------------------------||
G|----------------------------------------||
D|----------------------------------------||
A|-0-0-0-0-------0-0-0-0-0-0-0--0-7-8-10*-||
D|-0-0-0-0-------0-0-0-0-0-0-0------------||
   . . . .       . . . . . . .

[Both Guitars]
e|---------------------------------------------------------------||
B|---------------------------------------------------------------||
G|---------------------------------------------------------------||
D|------------------------------7h8p7----7-----------------------||
A|-0-0-0-0-------0-0-0-0-0-0-0--------10---10-8--7h8p7----7------||
D|-0-0-0-0-------0-0-0-0-0-0-0------------------------10---10-8--||
   . . . .       . . . . . . .        .  . .  .       .   . . .

[Guitar 1]
e|----------------------------------------||
B|----------------------------------------||
G|----------------------------------------||
D|------------------------------0-7-8-10*-||
A|-0-0-0-0-------0-0-0-0-0-0-0------------||
D|-0-0-0-0-------0-0-0-0-0-0-0------------||
   . . . .       . . . . . . .
[Guitar 2]
e|----------------------------------------||
B|----------------------------------------||
G|----------------------------------------||
D|----------------------------------------||
A|-0-0-0-0-------0-0-0-0-0-0-0--0-7-8-10*-||
D|-0-0-0-0-------0-0-0-0-0-0-0------------||
   . . . .       . . . . . . .

[Both Guitars]
e|---------------------------------------------------------------||
B|---------------------------------------------------------------||
G|---------------------------------------------------------------||
D|------------------------------7h8p7----7-----------------------||
A|-0-0-0-0-------0-0-0-0-0-0-0--------10---10-8--7h8p7----7------||
D|-0-0-0-0-------0-0-0-0-0-0-0-------------------------10---10-8-||
   . . . .       . . . . . . .

[Guitar 1]
e|----------------------------------------||
B|----------------------------------------||
G|----------------------------------------||
D|------------------------------0-7-8-10*-||
A|-0-0-0-0-------0-0-0-0-0-0-0------------||
D|-0-0-0-0-------0-0-0-0-0-0-0------------||
   . . . .       . . . . . . .
[Guitar 2]
e|----------------------------------------||
B|----------------------------------------||
G|----------------------------------------||
D|----------------------------------------||
A|-0-0-0-0-------0-0-0-0-0-0-0--0-7-8-10*-||
D|-0-0-0-0-------0-0-0-0-0-0-0------------||
   . . . .       . . . . . . .

[Both Guitars]
e|---------------------------------------------------------------||
B|---------------------------------------------------------------||
G|---------------------------------------------------------------||
D|------------------------------7h8p7----7-----------------------||
A|-0-0-0-0-------0-0-0-0-0-0-0--------10---10-8--7h8p7---7-------||
D|-0-0-0-0-------0-0-0-0-0-0-0------------------------10--10-8---||
   . . . .       . . . . . . .

[Guitar 1]
e|----------------------------------------||
B|----------------------------------------||
G|----------------------------------------||
D|------------------------------0-7-8-10*-||
A|-0-0-0-0-------0-0-0-0-0-0-0------------||
D|-0-0-0-0-------0-0-0-0-0-0-0------------||
   . . . .       . . . . . . .
[Guitar 2]
e|----------------------------------------||
B|----------------------------------------||
G|----------------------------------------||
D|----------------------------------------||
A|-0-0-0-0-------0-0-0-0-0-0-0--0-7-8-10*-||
D|-0-0-0-0-------0-0-0-0-0-0-0------------||
   . . . .       . . . . . . .

End
[Both Guitars]
e|-----------------------------||
B|-----------------------------||
G|-----------------------------||
D|-----------------------------||
A|-0-0-0-0-------0-0-0-0-0-0-0-||
D|-0-0-0-0-------0-0-0-0-0-0-0-||





Comments


Popular Manntis tabs & chords
New Breed Of Life Bass Tabs
Reflection's Of You Bass Tabs
Shades Of Hatred Bass Tabs
Axe Of Redemption Tabs
Axe Of Redemption 1 Tabs
Axe Of Redemption Intro Tabs
Breed New Life Intro Tabs
Reflections Of You Intro Tabs
Reflections Of You Intro 1 Tabs
Shades Of Hatred 1 Tabs


Song lyrics



↑ Back to top | Tablatures and chords are parodies/interpretations of the original songs. You may use it for private study, scholarship, research or language learning purposes only
© 2014 AZChords.com Contact us | Privacy policy | DMCA | Add/correct tabs | Request tabs | Top 50 tabs