» » »

New Breed Of Life Bass tabs (ver.1)

Artists:  A B C D E F G H I J K L M N O P Q R S T U V W X Y Z # 

New Breed Of Life Bass tabs (ver.1)

Manntis
Rating:
0/5 (0 votes)

Tabs too difficult? Try these video lessons and learn fast.
                Manntis - A New Breed of Life

tuning (low ot high) - D A D G

Fill 1 x1
|---------------------------|
|---------------------------|
|-------7--------7----8-8-8-|
|-0-0-0----0-000----0-------|

Riff 1 x4
|---------------------------------------------------------------|
|-------------------------------------------------5h6--6-5h7--7-|
|-----------------3h4-4-4-3h5-5-5-------------------------------|
|-0-0-0-0-0-0-0-0-----------------0-0-0-0-0-0-0-0---------------|

Riff 2 x1
|-----------------------------------------------------------------------|
|-----------------------------7-7-------------------------9-9-9-9-------|
|-5-5-5-5-5-5-5-5-5-5-5-5-5-5-----7-7-7-7-7-7-7-7-7-7-7-7---------5-x16-|
|-----------------------------------------------------------------------|

Fill 1 x1

Riff 2 x1

Fill 1 x1

Riff 3 x2
|-------------------------------------------|
|-------------------------------------------|
|-----7h9----8---8h10------7h9----8---8h10--|
|-000------0---0-------000------0---0-------|

pause 

Riff 3 x2

Riff 4 x1
|-------------------------------------------------------------------------------|
|-----------7-----------9-----------6-----7-----7-----9-----------7-----------9-|
|-------------------------------------------------------------------------------|
|-5--5--5-----7--7--7-----4--4--4-----5-5---5-5---7-7---5--5--5-----7--7--7-----|

|---------------------------------------------------------------------------|
|-----------6------------------------------------------------------------5--|
|---------------------------------------------------------------------------|
|-4--4--4-----0---------(-00-0-0-0-0-0-0-0------)(x3)-00-0-0-0-0-0-0-0------|

Riff 5 x4
|--------------------------------------------------------|
|-----------------------------------------------------5--|
|------------------3h4-4-4-3h5-5-5-----------------------|
|-00-0-0-0-0-0-0-0-----------------00-0-0-0-0-0-0-0------|

Riff 2 x1

Fill 1 x1

Riff 2 x1

Fill 1 x1
            
Tabs too difficult? Try these video lessons and learn fast.




comments powered by Disqus
↑ Back to top | Tablatures and chords are parodies/interpretations of the original songs. You may use it for private study, scholarship, research or language learning purposes only