>
 >
Invisible Ink

Invisible Ink Guitar Tabs

Mann Aimee - Invisible Ink chords, tabs, tablatures, lyrics

Guitar lessons | Add/correct | Request | Top 50 tabs Artists:  A B C D E F G H I J K L M N O P Q R S T U V W X Y Z 0-9

Invisible Ink Guitar Tabs – Mann Aimee

CD, Sheet music, Poster

Do you like Invisible Ink? Share with your friends now
ChordsTabs
AIMEE MANN - INVISIBLE INK
                    from the album "Lost In Space"


Capo: 4

1st VERSE 

     F#                                Bm              G 
E |---------------------------------|---------------------------------|
B |----------2----------------------|----------3---------------3------|
G |----------3----------------------|----------4---------------0------|
D |------4--------------------------|------4-------0-------0-------0--|
A |--1------------------------------|--2------------------------------|
E |--+-------+-------+-------+------|--+-------+-------3-------+------|
                    There comes  a   time when   you swim    or sink      
                    Maybe I          wrote   in      invisible  ink

     D               G                 D               G 
E |----------2----------------------|----------2----------------------|
B |----------3---------------3------|----------3---------------3------|
G |------2-------0-----------0------|------2-------0-----------0------|
D |--0-------------------0-------0--|--0-------------------0-------0--|
A |---------------------------------|---------------------------------|
E |--+-------+-------3-------+------|--+-------+-------3-------+------|
            so  I   jumped in the drink        cause I couldn't make
            oh I've tried  to     think          how I could've made

    D               A                  A4               A
E |---------------------------------|----------------||----------------|
B |----------3----------------------|--3-------2-----||---------2------|
G |------2-------0-----------2------|--2-------2-----||---------2------|
D |--0-------------------2----------|------2-------2-||-----2----------|
A |------------------0-----------0--|--0-------------||-0-----------0--|
E |--+-------+-------+-------+------|--+-------+-----||-+-------+------|
        myself      clear    [goto begin the 1st time]
        it        appear

     D               G                 A
E |---------------------------------|---------------------------------|
B |--3-----------3-----------3------|----------3-------3-------2------|
G |----------2---------------0------|----------2-----------0-------2--|
D |------0---------------0-------0--|------2-------2------------------|
A |---------------------------------|--0------------------------------|
E |--2-------+-------3-------+------|--+-------+-------+-------+------|
         But another                                   illustration

     D               G/C               G/B             G/A
E |----------2----------------------|---------------------------------|
B |----------3---------------3------|----------3---------------3------|
G |------2-------2-----------0------|----------0---------------0------|
D |--0-------------------0----------|------0-------0-------0-------0--|
A |------------------3-----------3--|--2---------------0--------------|
E |--+-------+-------+-------+------|--+-------+-------+-------+------|
                  is wasted      cause     the  results    are the

     A4              A                 A4              A
E |---------------------------------|---------------------------------|
B |----------3-------2---0----------|----------3-------2-------3------|
G |----------0-------2-------2------|----------0-------------------2--|
D |------2-------2---------------2--|------2-------2-------2----------|
A |---------------------------------|------------------0-------0------|
E |--0-------+-------+-------+------|--0-------+-------+-------+------|
     same                                                      I   feel
     G                A                                D
E |---------------------------------|--------------------------2------|
B |----------3---------------3------|--3-------2---------------3------|
G |----------0---------------2------|--2-------2-----------2-------2--|
D |------0-------0-------2-------2--|------2-------2---0--------------|
A |------------------0--------------|---------------------------------|
E |--3-------+-------+-------+------|--+-------+-------+-------+------|
     like            a                 ghost   who's   trying      to

     G/C              G/B             G/A              A2/4
E |---------------------------------|---------------------------------|
B |----------3---------------3------|----------3---------------3------|
G |----------0---------------0------|----------0---------------0------|
D |------0---------------0-------0--|------0-------0-------2-------2--|
A |--3-----------3---2--------------|--0------------------------------|
E |--+-------+-------+-------+------|--+-------+-------0-------+------|
     move your     hands over       some   ouija   board   in  the hopes

    A                G                 D               D9
E |---------------------------------|----------2-------3-------3------|
B |----------2-----------3----------|----------3-------3-------3------|
G |----------2-----------0----------|------2-------2-------2-------2--|
D |------2-------2-------0-------0--|--0------------------------------|
A |--0----------------------0h2-----|---------------------------------|
E |--+-------+-------3-------+------|--+-------+-------+-------+------|
         I   can     spell out my name

    D                F#
E |--3------------------------------|
B |--2-----------------------2------|
G |--------------------------3------|
D |----------------------4----------|
A |------------------1--------------|
E |--+-------+-------+-------+------|


2nd VERSE

What some take from magic at first glance
is just sleight of hand
depending how much you believe
Something gets lost when you translate
it's hard to keep straight
perspective is everything

And I know now which is which
and wnat angle I oughta look at it from
I suppose I should be happy to be misread
better be that than
some of the other things I have become


CHORUS

v: strum down
^: strum up

   v       v     ^ v   v     ^ v ^
|--+-------+-------+-------+------|

             A                  Em
But nobody wants to hear this tale

             A                        Em
The plot is cliched - the jokes are stale

               G            D     A
and baby we've all heard it all before

           A              Em
oh I could get specific but

           A       Em
nobody needs a catalog

                 G           D         A
with details of a love I can't sell anyone


BRIDGE

     D               G                 A
E |---------------------------------|---------------------------------|
B |--3-----------------------3------|----------3-------3-------2------|
G |--2-----------------------0------|----------2-----------0-------2--|
D |----------------------0-------0--|------2-------2------------------|
A |---------------------------------|--0------------------------------|
E |--2-------+-------3-------+------|--+-------+-------+-------+------|
             And  aside              from              that    this

     D               G/C               G/B             G/A
E |----------2----------------------|---------------------------------|
B |----------3---------------3------|----------3---------------3------|
G |------2-------2-----------0------|----------0---------------0------|
D |--0-------------------0----------|------0-------0-------0-------0--|
A |------------------3-----------3--|--2---------------0--------------|
E |--+-------+-------+-------+------|--+-------+-------+-------+------|
     chain   of    reaction          baby      is    losing    a

     A4              A                 A4              A
E |---------------------------------|---------------------------------|
B |----------3-------2---0----------|----------3-------2-------3------|
G |----------0-------2-------2------|----------0-------------------2--|
D |------2-------2---------------2--|------2-------2-------2----------|
A |---------------------------------|------------------0-------0------|
E |--0-------+-------+-------+------|--0-------+-------+-------+------|
   link                                                    Tought I'd
     G                A                                D
E |---------------------------------|--------------------------2------|
B |----------3---------------3------|--3-------2---------------3------|
G |----------0---------------2------|--2-------2-----------2-------2--|
D |------0-------0-------2-------2--|------2-------2---0--------------|
A |------------------0--------------|---------------------------------|
E |--3-------+-------+-------+------|--+-------+-------+-------+------|
   hope              you'd             know    what    I       tried to

     G/C              G/B             G/A              A2/4
E |---------------------------------|---------------------------------|
B |----------3---------------3------|----------3---------------3------|
G |----------0---------------0------|----------0---------------0------|
D |------0---------------0-------0--|------0-------0-------2-------2--|
A |--3-----------3---2--------------|--0------------------------------|
E |--+-------+-------+-------+------|--+-------+-------0-------+------|
     tell you      and   if you    don't   I   could draw  you a   pic-

    A                G                 D
E |---------------------------------|----------2------------------2-2-|
B |----------2-----------3-------3--|----------3------------------3-3-|
G |----------2-----------0-------0--|------2----------------------2-2-|
D |------2-------2-------0-------0--|--0--------------------------0-0-|
A |--0----------------------0h2-----|---------------------------------|
E |--+-------+-------3-------+------|--+-------+-------+-------+------|
   ture          in invisible    ink


CHORUS

A Em A Em G D A
Oooh...

A Em A Em G D A
Oooh...


ENDING

A A Em A Em

    G                D                 A
E |--------------3-----------3------|--0------------------------------|
B |--------------3---3-------2------|--2------------------------------|
G |----------0-------2--------------|--2------------------------------|
D |----------0-----------0----------|--2------------------------------|
A |------0---2-------------------0--|--0------------------------------|
E |--3-------+-------+-------+------|--0-------+-------+-------+------|



----------------------------------------------------------- 
This is not the final version. If anyone has additions 
or if the tab does not correspond with the original version 
please feel free to let me know. 

-----------------------------------------------------------





Comments


Popular Mann Aimee tabs & chords
Christmas Time Chords
Jacob Marleys Chain Chords
Long Shot Chords
Nightmare Girl Chords
Nothing Is Good Enough Chords
Truth On My Side Chords
Wise Up Chords
Coming Up Close Tabs
Driving With One Hand On The Wheel Tabs
Thats Just Tabs


Song lyrics



↑ Back to top | Tablatures and chords are parodies/interpretations of the original songs. You may use it for private study, scholarship, research or language learning purposes only
© 2014 AZChords.com Contact us | Privacy policy | DMCA | Add/correct tabs | Request tabs | Top 50 tabs