» » »

Man Man, Feathers Tabs (ver.1)

Artists:  A B C D E F G H I J K L M N O P Q R S T U V W X Y Z # 

Feathers Tabs (ver.1)

Man Man Tabs
Rating:
5/5 (3 votes)
Feathers lessons Tabs too difficult? Try these video lessons and learn fast
                -------------------------------------------------------------------------------
-------------------------------------------------------------------------------
This is a great song off of Six Demon Bag (2006). It's for piano, but here's a 
for guitar. A fun one to sing.

Lyrics:
She feels like a stranger has come in the night,
Stolen her life, and left her with this
Boughs break on ebony toothaches
She's just a flask trapped inside a fall
I know you need to find what you thought you left behind in a past life
I won't question why the only light that you have you gave away
I know you need to find what you thought you left behind in a past life
I won't question why the only light that you have you gave away
She feels like a stranger has come in the night,
Stolen her life, and left her with this

This tab isn't in exact order, but it has all the parts, so it might take a little bit 
piecing together and listening to the song.

Guitar 1
e|---------------------------------------------------------------------------|
B|---------------------------------------------------------------------------|
G|---------------------------------------------------------------------------|
D|--5-5---5-5---5-5---5-5---5-5---5-5---5-5---5-5---3-3---3-3---3-3---3-3----|
A|--6-6---6-6---6-6---6-6---6-6---6-6---6-6---6-6---5-5---5-5---5-5---5-5----|
E|8-----8-----8-----8-----6-----6-----6-----6-----7-----7-----7-----7--------|

e|---------------------------|
B|---------------------------|
G|---------------------------|This progression continues throughout the song.
D|--5-5---5-5---5-5---5-5----|
A|--6-6---6-6---6-6---6-6----|
E|8-----8-----8-----8--------|

Guitar 2
e|------------15----------------------15-------------------------------------|
B|------8-----16----------------8-----16-------------------------------------|
G|------8-----17----------------8-----15-------------------------------------|
D|5-----10----------------5-----8-----------------3---------------------5----|
A|6-----------------------6-----------------------5---------------------6----|
E|8-----------------------6-----------------------7---------------------8----|

  She feels like a stranger has come in the night, stolen her life, and left
e|---------------------------------------------------------------------------|
B|-----------------8-------------------------8------8------8---7---------7---|
G|----8-----7----------10----8-------------------------10--------------------|
D|-------------------------------8-------------------------------------------|
A|---------------------------------------------------------------------------|
E|---------------------------------------------------------------------------|

  her with this. Boughs break on e-bo-ny toothaches, she's just a flask
e|--------------------------------------------11-----15----13----------------|
B|-5--8--7--5----8------8-----8--8----8--11---------------------16-15--------|
G|---------------------------------10----------------------------------------|
D|---------------------------------------------------------------------------|
A|---------------------------------------------------------------------------|
E|---------------------------------------------------------------------------|

  trapped inside a fall. I know you need to find what you thought you left
e|---------------------------------------------------------------------------|
B|15------13-16--15-13---8--7----6-------6---7----8----7---6-----------6-----|
G|-----------------------------------8----------------------------8----------|
D|---------------------------------------------------------------------------|
A|---------------------------------------------------------------------------|
E|---------------------------------------------------------------------------|

  behind in a past life, I won't question why the only light that you had
e|--------------------------------------------------------------------6------|
B|7--8---7--6-------6--7-8--7-----6--------6---7--8-----8--------------------|
G|-------------8----------------------8--------------------------------------|
D|---------------------------------------------------------------------------|
A|---------------------------------------------------------------------------|
E|---------------------------------------------------------------------------|

  you gave a-way-ay-ay-ay
e|---------------------------------------------------------------------------|
B|-----9---8--6--------------------------------------------------------------|
G|---------------8--7--5-----------------------------------------------------|
D|---------------------------------------------------------------------------|
A|---------------------------------------------------------------------------|
E|---------------------------------------------------------------------------|


| /  slide up
| \  slide down
| h  hammer-on
| p  pull-off
| ~  vibrato
| +  harmonic
| x  Mute note
===============================================================================
            

comments powered by Disqus
↑ Back to top | Man Man Tabs for Feathers. Lyrics for acoustic guitar and electric guitar. Tablatures and chords are parodies/interpretations of the original songs. You may use it for private study, scholarship, research or language learning purposes only