>
 >
Your Love Alone Is Not Enough 1

Your Love Alone Is Not Enough 1 Guitar Tabs

Manic Street Preachers - Your Love Alone Is Not Enough 1 chords, tabs, tablatures, lyrics

Guitar lessons | Add/correct | Request | Top 50 tabs Artists:  A B C D E F G H I J K L M N O P Q R S T U V W X Y Z 0-9

Your Love Alone Is Not Enough 1 Guitar Tabs – Manic Street Preachers

CD, Sheet music, Poster

Do you like Your Love Alone Is Not Enough 1? Share with your friends now
Bass TabsChordsTabsTabs v2Ukulele
Tunning: Standard


- When switching from Em To G james plays it like this most of the time

e-0--0-0--0-----3--|
b-0--0-0--0-----3--|
G-0--0-0--0--0--0--|
D-2--2-2--2--0--0--|
A-2--2-2--2--x--2--|
E-0--0-0--0--2--3--|

- After some of the Em chords james plays this little riff

e-0--2-0----------|
b-0-------3-2-----|
G-----------------|
D-----------------|
A-----------------|
E-----------------|

D    A      Em
Your love alone
            D	      A	          Em
Is not enough, not enough, not enough
D    A         Em
When times get tough
           D            A                Em
They get tough, they get tough, they get tough


G
Trade all your heroes
         D	       A	      Em
In for ghosts, in for ghosts, in for ghosts
G
They're always the ones that
	  D	 	A	          Em
Love you most, love you most, love you most

D  A    Em

D       A      Em
Your love alone
	  D	      A	           Em
Is not enough, not enough, not enough
D     A          Em
It's what you felt
                D	      A              Em
It's what you said, what you said, what you said


G
You said the sky would
	D	      A	          Em
Fall on you, fall on you, fall on you
G				      D
Through all the pain your eyes stayed blue
	     A	       Em
They stayed blue, baby blue

D   A     Em

Riff 1
E|------------\77----5----3----5----3---2---0--|
B|------------\7-7----5----3----5----3---2---0--|
G|----------------------------------------------|


A				Em
But your love alone won't save the world
G				D
You'll know the secret of the universe

Riff 1

A				Em
Despite it all you made it worse
G
It left you lonely, it left you cold

D   A         Em
You stole the sun
                 D		A	        Em
Straight from my heart, from my heart, from my heart
D    A     Em
With no excuses
	    D	       A	    Em
Just fell apart, fell apart, fell apart

G			       D
No, you won't make a mess of me
        A	    Em
Mess of me, mess of me
G			         D
For you're as blind as a man can be
	A	    Em
Man can be, man can be

D    A   Em

Riff 1

A			      Em
I could've seen for miles and miles
G		          D
I could've made you feel alive

Riff 1

A		           Em
I could've placed us in exile
			       G
(I could've written all your lines)
I could've shown you
(I could've shown you)
How to cry

D  A  Em - Your love alone
D  A  Em - Is not enough
D  A  Em - Your love alone
D  A  Em - Is not enough

Riff 1

SOLO:

E|---------------------------------------------------------------------------|
B|---------------------------------------------------------------------------|
G|--------2\6~---6---4---2---4~----------2---0----\4--4~-----7---4------4-4~-|
D|--------------------------------------------------------------------7------|
A|---------------------------------------------------------------------------|
E|---------------------------------------------------------------------------|

Riff 1

A				Em
La la la la, la la la la
G
I could've shown you
Shown you how to cry

D   A   Em - Your love alone
D   A   Em - Is not enough
D   A   Em - Your love alone

D   A   Em





Comments


Popular Manic Street Preachers tabs & chords
Archives Of Pain  1 Bass Tabs
Freedom Of Speech Won't Feed My Children 1 Bass Tabs
La Tristesse Durera 1 Bass Tabs
Motorcycle Emptiness Chords
Small Black Flowers 1 Tabs
The Intense Humming Of Evil  Tabs
You Love Us Intro Tabs
Further Away Ukulele
Little Baby Nothing Ukulele
Ocean Spray Ukulele


Song lyrics



↑ Back to top | Tablatures and chords are parodies/interpretations of the original songs. You may use it for private study, scholarship, research or language learning purposes only
© 2014 AZChords.com Contact us | Privacy policy | DMCA | Add/correct tabs | Request tabs | Top 50 tabs