» » »

Manic Street Preachers, Too Cold Here Tabs (ver.1)

Artists:  A B C D E F G H I J K L M N O P Q R S T U V W X Y Z # 

Too Cold Here Tabs (ver.1)

Manic Street Preachers Tabs
 Rating:
4/5 (4 votes)
Too Cold Here lessons Tabs too difficult? Try these video lessons and learn fast
1
                Member Name: the edge
Real Name: Alan Kells

Too Cold Here Guitar TAB

Verse:

A ----------------------------------------------------------------------
E --5/7-7-5-0-3-0-3-0-3-0-3---------------------------------------------

C                        G
It's easier to make love to a stranger,
C                  G
Than to ask a friend to call,
B#              Em7
Suspicion knows nothing,
C'                    B#
And is known for not much at all, much at all,

Too cold here......
E ----7-----7-----7-----7-----7-----7-----7-----7-----7-----7---
B ------8-----8-----7-----7-----7-----6-----6-----5-----5-------
G --7-----7-----7-----7-----7-----7-----7-----7-----7-----7-----
D --------------------------------------------------------------
A --------------------------------------------------------------
E --------------------------------------------------------------

           E A D G B E

       C   0 3 2 0 1 0
       G   3 2 0 0 3 3
       B#  x 2 4 4 3 2
       Em7 0 1 0 0 0 0
       C'  x 3 5 5 4 3
            
Submit corrections

comments powered by Disqus
↑ Back to top | Manic Street Preachers Tabs for Too Cold Here. Lyrics for acoustic guitar and electric guitar. 1 Tablatures and chords are parodies/interpretations of the original songs. You may use it for private study, scholarship, research or language learning purposes only