» » »

Manic Street Preachers, This Is Yestarday Tabs (ver.1)

Artists:  A B C D E F G H I J K L M N O P Q R S T U V W X Y Z # 

This Is Yestarday Tabs (ver.1)

Manic Street Preachers Tabs
 Rating:
4/5 (4 votes)
This Is Yestarday lessons Tabs too difficult? Try these video lessons and learn fast
1
                Member Name: the edge
Real Name: Alan Kells

This Is Yesterday

E-------0----------------------------
B---------3-------------0------------
G-------4-2-----0-2-0---0------------    x2
D------------------------------------
A------------------------------------
E---3-3-3-3-3-3-3-3-3-3-3-3-3-3-3-3--

E-----2-----0------------------------
B-------3-----1-----3-----1----------
G---------0-----0-----0--------------
D-----------------------0------------
A---3-3-3-3-3-3-3-3-3-3-3-3-3-3-3-3--
E------------------------------------

E-----2-----0-------2-2---2---2---2--
B-------3-----1-----3-3---3---3---3--
G---------0-----0---2-2---2---2-2-2--
D-------------------0-0-0-0-0-0-0-0--
A---3-3-3-3-3-3-3-3------------------
E------------------------------------
            
Submit corrections

comments powered by Disqus
↑ Back to top | Manic Street Preachers Tabs for This Is Yestarday. Lyrics for acoustic guitar and electric guitar. 1 Tablatures and chords are parodies/interpretations of the original songs. You may use it for private study, scholarship, research or language learning purposes only