>
 >
Take The Skinheads Bowling

Take The Skinheads Bowling Guitar Tabs

Manic Street Preachers - Take The Skinheads Bowling chords, tabs, tablatures, lyrics

Guitar lessons | Add/correct | Request | Top 50 tabs Artists:  A B C D E F G H I J K L M N O P Q R S T U V W X Y Z 0-9

Take The Skinheads Bowling Guitar Tabs – Manic Street Preachers

CD, Sheet music, Poster

Do you like Take The Skinheads Bowling? Share with your friends now
Tabs
Member Name: the edge
Real Name: Alan Kells

Take the Skinheads Bowling Guitar TAB

VERSE:

     C     Fmaj7        (repeated)

e----3-------0---
B----5-------1---
G----5-------2---
D----5-------3---
A----3-------3---
E----------------

CHORUS:
G-|-5-5----5-5----|-5-5----5-5--5-|
D-|-5-5--5-5-5--5-|-5-5--5-5-5--5-|
A-|-3-3--5-3-3--5-|-3-3--5-3-3--3-|
E-|------3------3-|------3--------|

VERSE 2 riff:

e-|-----------------|--------|---------------|
B-|-----------------|-Repeat-|---------------|
G-|-----2-5-2-------|---x3---|-----2-5-2-----|  Played through twice
D-|-3-5-------5-3-5-|--------|-3-5--------5--|
A-|-----------------|--------|---------------|


e-|-----5-8-5-------|--------|-----5-8-5-----|
B-|-6-8-------8-6-8-|-Repeat-|-6-8--------8--|  Played through twice
G-|-----------------|---x3---|---------------|
D-|-----------------|--------|---------------|





Comments


Popular Manic Street Preachers tabs & chords
Australia Bass Tabs
Die In The Summertime  Bass Tabs
Ain't Going Down Tabs
Design For Life 1 Tabs
Design For Life 2 Tabs
If White America Tabs
Postcards From A Young Man Tabs
Let Robseon Sing Ukulele
Masses Against The Classes Ukulele
No Surface All Feeling Ukulele


Song lyrics



↑ Back to top | Tablatures and chords are parodies/interpretations of the original songs. You may use it for private study, scholarship, research or language learning purposes only
© 2014 AZChords.com Contact us | Privacy policy | DMCA | Add/correct tabs | Request tabs | Top 50 tabs