» » »

So Why So Sad Tabs (ver.2)

Artists:  A B C D E F G H I J K L M N O P Q R S T U V W X Y Z # 

So Why So Sad Tabs (ver.2)

Manic Street Preachers
Rating:
0/5 (0 votes)

Hard to play? Try these video lessons and learn fast.
                Chords Used:
A: 577655
Bm: 799777
C#m: 9,11,11,999
D: 10,12,12,11,10
E: 022100
F#m: 244222
C: X35553


[INTR0]
   A
e||-------------------|--------|
B||-----5-------5-----|--------|
G||---6---6---6---6---|-REPEAT-|
D||-7-------7-------7-|--------|
A||-------------------|--------|
E||-------------------|--------|


[VERSE 1]
      A
e||------------------------------------------|
B||---------5-----------5---------5----------|
G||------6-----6-----6----6----6-----6-------|
D||---7-----------7---------7-----------7----|
A||------------------------------------------|
E||------------------------------------------|
                  Things  get  clear  when  I  feel

      Bm                       C#m
e||--------------|         e||----------------|
B||---------7----|         B||----------9-----|
G||------7-----7-|         G||-------9-----9--|
D||---9----------| x4      D||---11-----------| x4
A||--------------|         A||----------------|
E||--------------|         E||----------------|
      Free                       But what happens next comes

      D                        	    E
e||-------------------|         e||---------------|
B||-----------10------|         B||---------0-----|
G||-------11------11--|         G||------1-----1--|
D||---12--------------| x4      D||---2-----------| x4
A||-------------------|         A||---------------|
E||-------------------|         E||---------------|
       easily                        What gentle hands you brought to

     F#m
e||----------------|
B||----------2-----|
G||-------2----2---|
D||----4-----------| x4
A||----------------|
E||----------------|
    me

    A                           G
e||---------------|         e||---------------|
B||---------5-----|         B||---------3-----|
G||------6-----6--|         G||------4-----4--|
D||---7-----------| x2      D||---5-----------| x2
A||---------------|         A||---------------|
E||---------------|         E||---------------|
  When your eyes feel weak and tired it truly

     A
e||---------------|         
B||---------5-----|         
G||------6-----6--|         
D||---7-----------| x4   
A||---------------|        
E||---------------|      
      hits


[CHORUS]
      F#m                          C#m
e||---------------|         e||---------------|            |
B||---------2-----|         B||---------9-----|            |
G||------2-----2--|         G||------9-----9--|            |
D||--4------------| x4      D||---11----------| x4         | x2
A||---------------|         A||---------------|            |
E||---------------|         E||---------------|            |
      So why so sad            You live and you love
     So why so sad            You've given all the love

      Bm                          E
e||---------------|         e||---------------|
B||---------7-----|         B||---------0-----|
G||------7-----7--|         G||------1-----1--|
D||---9-----------| x4      D||---2-----------| x4
A||---------------|         A||---------------|
E||---------------|         E||---------------|
      Searching for the        dead sea scrolls

      G                          Bm
e||---------------|         e||---------------|            |
B||---------3-----|         B||---------7-----|            |
G||------4-----4--|         G||------7-----7--|            |
D||---5-----------| x4      D||---9-----------| x4         | x2
A||---------------|         A||---------------|            |
E||---------------|         E||---------------|            |
      So why, so why so sad


[VERSE 2]
When I missed you you were my life
When I missed you you were my life
So at ease in the midnight sky
So at ease in the midnight sky
My insides will look like wire
My insides will look like wire
Paralysed as if to prove my thoughts

REPEAT CHORUS

[VERSE 3]
My smile as real as a hyena's
My smile as real as a hyena's
Burns an express-way to my skull
Burns an express-way to my skull
Well I will stick myself together again
My spirit, soul and body know I can't pretend

Instrumental arranged for guitar 
(use distortion, neck pickup of a les paul and let all the notes ring out)

e|--------------------------------------------|
B|--------------------------------------------|
G|--------------------------------------------|
D|-2-slide-12----------------------------9----|
A|-------------10-9---------9----10--12-------|
E|-------------------12-10--------------------|

e|--------------------------------------------|
B|--------------------------------------------|
G|--------6--4--2/5--4--2-(2)/9--7--6---------|
D|-7--5---------------------------------------|
A|--------------------------------------------|
E|--------------------------------------------|


REPEAT CHORUS

[END CHORUS]
So why so sad
You live and you love
So why so sad
You've given all the love
Searching for the dead sea scrolls
So why, so why so sad
So why, so why so sad
So why, so why so sad
            
Hard to play? Try these video lessons and learn fast. | Correct




comments powered by Disqus
↑ Back to top | Tablatures and chords are parodies/interpretations of the original songs. You may use it for private study, scholarship, research or language learning purposes only